Oops, an error
Loading. Please wait.

Seasons tab

version 4
version 4

Whole song

7,584 views 1 this week
1 commentread comment
1 2 3 4 5
x 4
add to favorites
×
Save as Personal and add changes to this tab that will be seen only by you. Learn more ›
×
You can save this tab as Personal to edit and correct it or add notes. All changes will be seen only by you. Learn more »
launch autoscroll
font size
0
reset
how to read this tab
guitar tuner
edit
Autoscroll
slow
fast
+/-
esc
set tempo
stop
Difficulty
Love this song. I tried my best to tab it. i t may not be 100% correct but its somewhere 
the 90 percentage range which is still an "A". :)

Intro:

  Clean/ Acoustic

    C                G              Fma7               C             G
e|--0----------------3----------------0----------------0-------------3--------|
B|--1----------------0----------------1----------------1-------------0--------|
G|--0----------------0----------------2----------------0------0------0--------|
D|--2----------------0----------------3----------------2—--0h2-------0--------|
A|--3----------------2----------------0----------------3-------------2--------|
E|--x----------------3----------------x----------------x-------------3--------|


Verse 1 (x2)

    C                G              Fma7               C             G
e|--0----------------3----------------0----------------0-------------3--------|
B|--1----------------0----------------1----------------1-------------0--------|
G|--0----------------0----------------2----------------0------0------0--------|
D|--2----------------0----------------3----------------2—--0h2-------0--------|
A|--3----------------2----------------0----------------3-------------2--------|
E|--x----------------3----------------x----------------x-------------3--------|


Chorus 1 (x2)

    C                G              Fma7               C             G
e|--0----------------3----------------0----------------0-------------3--------|
B|--1----------------0----------------1----------------1-------------0--------|
G|--0----------------0----------------2----------------0------0------0--------|
D|--2----------------0----------------3----------------2—--0h2-------0--------|
A|--3----------------2----------------0----------------3-------------2--------|
E|--x----------------3----------------x----------------x-------------3--------|


Verse 2 (x2)

  Distorted

e|----------------------------------------------------------------------------|
B|----------------------------------------------------------------------------|
G|--5-5-5-5-5-5-5-5-5-5-5-5-5-------------------------------------------------|
D|--5-5-5-5-5-5-5-5-5-5-5-5-5--5-5-5-5-5-5-5-5-5-5-5-5-5—---------------------|
A|--3-3-3-3-3-3-3-3-3-3-3-3-3--5-5-5-5-5-5-5-5-5-5-5-5-5----------------------|
E|-----------------------------3-3-3-3-3-3-3-3-3-3-3-3-3----------------------|
      * * * * * * * * * * * *    * * * * * * * * * * * *
e|----------------------------------------------------------------------------|
B|----------------------------------------------------------------------------|
G|----------------------------------------------------------------------------|
D|--3-3-3-3-3-3-3-3-3-3-3-3-3--5-5----0—-5-5-5-5-5-5--—-----------------------|
A|--3-3-3-3-3-3-3-3-3-3-3-3-3--5-5-0h2---5-5-5-5-5-5--------------------------|
E|--1-1-1-1-1-1-1-1-1-1-1-1-1--3-3-------3-3-3-3-3-3--------------------------|
      * * * * * * * * * * * *

Bridge (x1)

 Slightly Distorted

e|------------------------------------------------------|
B|------------------------------------------------------|
G|------------------------------5-5-5-5-5---------------|
D|----5~--2~--5~--2~--5~--2~----5-5-5-5-5-5-5-5-5-5-5---|
A|----5~--2~--5~--2~--5~--2~----3-3-3-3-3-5-5-5-5-5-5---|
E|----7~--0~--7~--0~--7~--0~--------------3-3-3-3-3-3---|


Chorus 2 (x2)

 Heavy Distortion

e|----------------------------------------------------------------------------|
B|----------------------------------------------------------------------------|
G|--5-5-5-5-5-5-5-5-----------------------------------------------------------|
D|--5-5-5-5-5-5-5-5---5-5-5-5-5-5-5-5-—---------------------------------------|
A|--3-3-3-3-3-3-3-3---5-5-5-5-5-5-5-5-----------------------------------------|
E|--------------------3-3-3-3-3-3-3-3-----------------------------------------|

e|----------------------------------------------------------------------------|
B|----------------------------------------------------------------------------|
G|-------------------------5-5------------------------------------------------|
D|--3-3-x-x-x-3-3-3-3-3-3--5-5----0-5-5-5-5-5-5-5—5---------------------------|
A|--3-3-x-x-x-3-3-3-3-3-3—-3-3-0h2--5-5-5-5-5-5-5-5---------------------------|
E|--1-1-x-x-x-1-1-1-1-1-1-----------3-3-3-3-3-3-3-3---------------------------|


Verse 3 (x1)

 Slightly Distorted

e|----------------------------------------------------------------------------|
B|----------------------------------------------------------------------------|
G|--5~------------------------------------------5~----------------------------|
D|--5~------------5~--—---------3~--------------5~---5~-----------------------|
A|--3~------------5~------------3~--------------3~---5~-----------------------|
E|----------------3~------------1~-------------------3~-----------------------|

e|----------------------------------------------------------------------------|
B|----------------------------------------------------------------------------|
G|--5-5-5-5-5-5-5-5-5-5-5-5-5-------------------------------------------------|
D|--5-5-5-5-5-5-5-5-5-5-5-5-5--5-5-5-5-5-5-5-5-5-5-5-5-5—---------------------|
A|--3-3-3-3-3-3-3-3-3-3-3-3-3--5-5-5-5-5-5-5-5-5-5-5-5-5----------------------|
E|-----------------------------3-3-3-3-3-3-3-3-3-3-3-3-3----------------------|
      * * * * * * * * * * * *    * * * * * * * * * * * *
e|----------------------------------------------------------------------------|
B|----------------------------------------------------------------------------|
G|-------------------------------5--------------------------------------------|
D|--3-3-3-3-3-3-3-3-3-3-3-3-3----5--5-----------------------------------------|
A|--3-3-3-3-3-3-3-3-3-3-3-3-3----3--5-----------------------------------------|
E|--1-1-1-1-1-1-1-1-1-1-1-1-1-------3-----------------------------------------|
      * * * * * * * * * * * *


Chorus 3 (x2)

 Heavy Distortion

e|----------------------------------------------------------------------------|
B|----------------------------------------------------------------------------|
G|--5-5-5-5-5-5-5-5-----------------------------------------------------------|
D|--5-5-5-5-5-5-5-5---5-5-5-5-5-5-5-5-—---------------------------------------|
A|--3-3-3-3-3-3-3-3---5-5-5-5-5-5-5-5-----------------------------------------|
E|--------------------3-3-3-3-3-3-3-3-----------------------------------------|

e|----------------------------------------------------------------------------|
B|----------------------------------------------------------------------------|
G|-------------------------5-5------------------------------------------------|
D|--3-3-x-x-x-3-3-3-3-3-3--5-5----0-5-5-5-5-5-5-5—5---------------------------|
A|--3-3-x-x-x-3-3-3-3-3-3—-3-3-0h2--5-5-5-5-5-5-5-5---------------------------|
E|--1-1-x-x-x-1-1-1-1-1-1-----------3-3-3-3-3-3-3-3---------------------------|


Outro (x2):

 Heavy Distortion

e|----------------------------------------------------------------------------|
b|----------------------------------------------------------------------------|
g|--5-5-5-5-5-5-5-5-----------------------------------------------------------|
d|--5-5-5-5-5-5-5-5---5-5-5-5-5-5-5-5-—---------------------------------------|
a|--3-3-3-3-3-3-3-3---5-5-5-5-5-5-5-5-----------------------------------------|
E|--------------------3-3-3-3-3-3-3-3-----------------------------------------|

e|----------------------------------------------------------------------------|
b|----------------------------------------------------------------------------|
g|-------------------------5-5------------------------------------------------|
d|--3-3-x-x-x-3-3-3-3-3-3--5-5----0-5-5-5-5-5-5-5—5---------------------------|
a|--3-3-x-x-x-3-3-3-3-3-3—-3-3-0h2--5-5-5-5-5-5-5-5---------------------------|
E|--1-1-x-x-x-1-1-1-1-1-1-----------3-3-3-3-3-3-3-3---------------------------|


End on:

E|---|
B|---|
G|-5-|
D|-5-|
A|-3-|
E|---|

There you go. Pretty easy song. Any comments you can contact me at Zuukzter@aim.com    
Fun :)

            
            
Suggest correction
Creating personal tab
Creating personal tab
You can edit any tab online and save it as your Personal.

You can edit, replace or remove any tab part or add personal notes – all changes will be seen only by you.

Personal tabs can be accessed anytime from any device, even offline.
Learn more »
comments
print report bad tab
1 comment total.
+1 reply
Acoustic124 10 Sep 27, 2008 02:42 AM

i think the hammer down in the chorus needs corection
5-5----------------------
5-5----0-5-5-5-5-5-5-5-5-
3-3-0h2--5-5-5-5-5-5-5-5-
---------3-3-3-3-3-3-3-3-

it sounds a bit down the lines of this
-------------------------
-------------------------
5-5-5/7\5----------------
5-5------5-5-5-5-5-5-5-5-
3-3------5-5-5-5-5-5-5-5-
---------3-3-3-3-3-3-3-3-
??

guest
Wanna post a correction for this tab? Suggest correction