Oops, an error
Loading. Please wait.

Sos bass

version 1
version 1

Whole song

Interactive

2,741 views 3 this week
no commentswrite comment
1 2 3 4 5
3 more votes to show rating
add to favorites
×
Save as Personal and add changes to this tab that will be seen only by you. Learn more ›
×
You can save this tab as Personal to edit and correct it or add notes. All changes will be seen only by you. Learn more »
launch autoscroll
font size
0
reset
guitar tuner
edit
Autoscroll
slow
fast
+/-
esc
set tempo
stop
This tab is the only one i can find on the web for this song
i also made the only tab i can find on the web for "it wasnt enough"
Tuning:Standard(E,A,D,G)
~=let ring
/=slide up
   Verse
G|------------------------------------|
D|------------------------------------|
A|-0-0000000-----------33333----------|
E|-----------1-1111111-------3-333333-| x4

   Verse 2
G|-------------------------------|
D|-------------------------------|
A|-000000000----------3333333333-|
E|-----------1~111111------------|  x2(on the second time, add A|-/777777-|

   Chorus
G|--------------------------|
D|--------------------------|
A|-0000-----333-33/5-55-----|
E|-----111-1----------------| x4
   Verse x4
   Verse 2 x2(same conditions)
   Chorus x4

   Bridge 
G|-------------------------------------|
D|-------------------------------------|
A|-00-00-00-00-------------33-33-33-33-|
E|-------------11-11-11-11-------------| x1
 
   then...
G|-------------------------------------------------------------------|
D|-------------------------------------------------------------------|
A|-0000000000000000-----------------3333333333333333-----------------|
E|-----------------11111111111111111----------------3333333333333333-| x2

   Solo
G|--------------------------|
D|--------------------------|
A|-0000-----333-33/5-55-----|
E|-----111-1----------------| x4

Well thats my tab
hope u like it
Suggest correction
Creating personal tab
Creating personal tab
You can edit any tab online and save it as your Personal.

You can edit, replace or remove any tab part or add personal notes – all changes will be seen only by you.

Personal tabs can be accessed anytime from any device, even offline.
Learn more »
Give kudos to tab author, rate the tab!
1 2 3 4 5
comments
print report bad tab
guest
You may want to rate the tab now too:
select rating
Wanna post a correction for this tab? Suggest correction