Oops, an error
Loading. Please wait.

Thank You Mom tab

version 3
version 3

Whole song

Interactive

4,331 views 1 this week
1 commentread comment
1 2 3 4 5
x 7
add to favorites
×
Save as Personal and add changes to this tab that will be seen only by you. Learn more ›
×
You can save this tab as Personal to edit and correct it or add notes. All changes will be seen only by you. Learn more »
launch autoscroll
font size
0
reset
how to read this tab
guitar tuner
edit
Autoscroll
slow
fast
+/-
esc
set tempo
stop
Author
Difficulty
intro/verse
e|--3-----3-----3-----0--|
B|--3-----3-----3-----3--|
G|--0-----0-----0-----2--|
D|--2-----2-----0-----0--|  x5
A|--0-----3-----2-----0--|
E|--------------3-----2--|

always, always and forever...

i'm sitting here 
i'm thinking back to a time when I was young
my memory is clear as day 
i'm listening to the dishes clink 
you were downstairs
you would sing songs of praise 
and all the times we laughed with you
and all the times that you stayed true to us
_______________________________________

chorus
e|--3-----0------3-----3-------1-1-1--|
B|--3-----1------3-----3-------1-1-1--|
G|--0-----2------0-----0-------1-1-1--|
D|--2-----2------2-----0--x2---3-3-3--|
A|--2-----0------3-----2-------3-3-3--|
E|--0------------------3-------1-1-1--|

now we'll say, I said I thank you 
i'll always thank you more than you would know 
than I could ever show 
and I love you, i'll always love you 
there's nothing I won't do 
to say these words to you that you're beautiful forever
_______________________________________

verse
e|--3-----3-----3-----0--|
B|--3-----3-----3-----3--|
G|--0-----0-----0-----2--|
D|--2-----2-----0-----0--|  x5
A|--0-----3-----2-----0--|
E|--------------3-----2--|

always, always and forever...

you were my mom, you were my dad 
the only thing I ever had was you, It's true 
and even when the times got hard you were there 
to let us know that we'd get through 
you showed me how to be a man 
you taught me how to understand 
the things people do 
you showed me how to love my God 
you taught me that not everyone knows the truth 
_______________________________________

chorus
e|--3-----0------3-----3-------1-1-1--|
B|--3-----1------3-----3-------1-1-1--|
G|--0-----2------0-----0-------1-1-1--|
D|--2-----2------2-----0--x2---3-3-3--|
A|--2-----0------3-----2-------3-3-3--|
E|--0------------------3-------1-1-1--|

and I thank you 
i'll always thank you 
more than you could know 
than I could ever show 
and I love you 
i'll always love you 
there's nothing I won't do 
to say these words to you 
that you will live forever 
_______________________________________

bridge
e|--3-----3-----3-----0--|
B|--3-----3-----3-----3--|
G|--0-----0-----0-----2--|
D|--2-----2-----0-----0--|  x2
A|--0-----3-----2-----0--|
E|--------------3-----2--|

forever and ever... forever and ever
_______________________________________

chorus
e|--3-----0------3-----3-------1-1-1-1-1-1--|
B|--3-----1------3-----3-------1-1-1-1-1-1--|
G|--0-----2------0-----0-------1-1-1-1-1-1--|
D|--2-----2------2-----0--x4---3-3-3-3-3-3--|
A|--2-----0------3-----2-------3-3-3-3-3-3--|
E|--0------------------3-------1-1-1-3-3-3--|

i said I thank you 
i'll always thank you
more than you could know 
than I could ever show         x2
and I love you 
i'll always love you 
there's nothing I won't do 
to say these words to you

that you will live forever
_______________________________________
...
Suggest correction
Creating personal tab
Creating personal tab
You can edit any tab online and save it as your Personal.

You can edit, replace or remove any tab part or add personal notes – all changes will be seen only by you.

Personal tabs can be accessed anytime from any device, even offline.
Learn more »
comments
print report bad tab
1 comment total.
0 reply
blackjack2300 10 May 06, 2009 09:54 PM

This is perfect thank you for this my mom will love it

guest
You may want to rate the tab now too:
select rating
Wanna post a correction for this tab? Suggest correction