Oops, an error
Loading. Please wait.
We have an official The Anthem tab made by UG professional guitarists. Check out the tab »
×
9,919 views 12 this week
3 commentsread comments
1 2 3 4 5
x 6
add to favorites
×
Save as Personal and add changes to this tab that will be seen only by you. Learn more ›
×
You can save this tab as Personal to edit and correct it or add notes. All changes will be seen only by you. Learn more »
launch autoscroll
font size
0
reset
how to read this tab
guitar tuner
edit
Autoscroll
slow
fast
+/-
esc
set tempo
stop
e-------------------------------------
b-------------------------------------
g-------------------------------------
d-7-77-777-9-11-----------------------
a-5-55-555-7-9------------------------
e-------------------------------------

e-------------------------------------
b-------------------------------------
g-------------------------------------
d--------12-12-11-9-------------------
a-7-77-7-10-10-9--7-------------------
e-5-55-5------------------------------

e-------------------------------------
b-------------------------------------
g-------------------------------------
d--------77-9-11----------------------
a-5-55-5-55-7-9-----------------------
e-3-33-3------------------------------

e-------------------------------------
b-------------------------------------
g-------------------------------------
d--------12-12-11-11-9----------------
a-7-77-7-10-10-9--9--7----------------
e-5-55-5------------------------------

            
            
Suggest correction
Creating personal tab
Creating personal tab
You can edit any tab online and save it as your Personal.

You can edit, replace or remove any tab part or add personal notes – all changes will be seen only by you.

Personal tabs can be accessed anytime from any device, even offline.
Learn more »
comments
print report bad tab
3 comments total.
0 reply
aname 10 Aug 17, 2006 09:47 AM

sucks

0 reply
aname 10 Aug 29, 2006 10:30 AM

its more like

e--------------------------
b--------------------------
g--------------------------
d-6-66-666-6-66------------
a-4-44-444-4-44------------
E--------------------------

and do that but then the same power chord on E and a then 2 and 4 on e and a and back 2 4 and 6 on e and a

0 reply
aname 10 Sep 12, 2006 02:45 PM

so ya

guest
Wanna post a correction for this tab? Suggest correction