Oops, an error
Loading. Please wait.
We have an official The Anthem tab made by UG professional guitarists. Check out the tab »
×
19,362 views 3 this week
2 commentsread comments
1 2 3 4 5
x 18
add to favorites
×
Save as Personal and add changes to this tab that will be seen only by you. Learn more ›
×
You can save this tab as Personal to edit and correct it or add notes. All changes will be seen only by you. Learn more »
launch autoscroll
font size
0
reset
guitar tuner
edit
Autoscroll
slow
fast
+/-
esc
set tempo
stop
Author
Tabbed By : Bryce
e-mail: b_etz@hotmail.com

Tuning: Standard

Intro - guitar only

G|----------------------------------------------------|
D|----------------------------------------------------|
A|44444444--------------------------------------------|
E|---------44444444-22222222-44444444-----------------|

Verse
G|-----------------------------------------------------|
D|-----------------------------------------------------|
A|444-444-------444-444-------444-444------------------|
E|-------444-444-------222-222-------444444-222222222--|

G|----------------------------------------------------|
D|----------------------------------------------------|
A|444-444-------444-444-------444-444-----------------|
E|-------444-444-------222-222-------444444-222222222-|

Pre-chorus
G|----------------------------------------------------|
D|----------------------------------------------------|
A|1111----44444444-1111-------------------------------|
E|----2222--------------2222-44444444-----------------|


G|----------------------------------------------------|
D|----------------------------------------------------|
A|4------------4------------4------------4------------|
E|-444422224444-444422225555-444422224444-44442-------|

then repeat the bass part right after the intro
then play the verse
then play the pre-chorus
then play the chorus

"shake it once thats fine"
G|----------------------------------------------------|
D|----------------------------------------------------|
A|--------------------4444----------------------------|
E|66664444222244446666----4444------------------------|

Under the solo
G|----------------------------------------------------|
D|----------------------------------------------------|
A|4444-----4444----4444-------------------------------|
E|----4444-----2222----444422222222-------------------|

Break

Outro
G|----------------------------------------------------|
D|----------------------------------------------------| play 10x's
A|44--------------------------------------------------|
E|--44222244------------------------------------------|

on the 10th time after all of the "another loser anthem", end with
G|----------------------------------------------------|
D|----------------------------------------------------|
A|----4-----------------------------------------------|
E|2-4-------------------------------------------------|



| /  slide up
| \  slide down
| h  hammer-on
| p  pull-off
| ~  vibrato
| +  harmonic
| x  Mute note
=================================================================

            
            
Suggest correction
Creating personal tab
Creating personal tab
You can edit any tab online and save it as your Personal.

You can edit, replace or remove any tab part or add personal notes – all changes will be seen only by you.

Personal tabs can be accessed anytime from any device, even offline.
Learn more »
comments
print report bad tab
2 comments total.
0 reply
mcr_01_fan 697 May 23, 2005 08:00 PM

nice!

0 reply
kat8kism 152 Feb 10, 2015 10:20 AM

Intro, also played a second time later into the song.

G|----------------------------------------------------|
D|----------------------------------------------------|
A|4-44-444468-------88864--------22246-------8866440--|
E|------------4-44-4------22-22-2-------44-44---------|

Try this for a bass solo

G|-------------------------------------------------------------------|
D|-------------------------------------------------------------------|
A|4-4-4342-2-2222-4-4-434-6-6-4-3-4-4-4342-2-240-88-888-888888888----|
E|----------------------------------------------------------------10\|

Most people should be able to figure out the proper strum patter for the verse. and other than a couple other minor changes This tab is pretty solid.
But I would add at least these 2 corrections.

guest
You may want to rate the tab now too:
select rating
Wanna post a correction for this tab? Suggest correction