Oops, an error
Loading. Please wait.

The Chronicles Of Life And Death Tab

version 2
version 2

Album

Interactive

4,362 views 1 this week
1 commentread comment
1 2 3 4 5
please rate
add to favorites
launch autoscroll
font size
0
reset
how to read this tab
guitar tuner
Autoscroll
slow
fast
+/-
esc
set tempo
stop
Help us to improve Ultimate-Guitar.com Take our survey!
×
Author
Difficulty
intermediate
I spent ages on this so i hope you like it if theres any changes email me at avenged_trivium@hotmail.co.uk

The Chronicles of life and death

The Chronicles of life and death

Intro: (pm)

(0:03)

e|--------------------|
B|--------------------|
G|-----5--4-----------|
D|--4--5--4--6--------|
A|--4--3--2--6--------|
E|--2--------4--------|


Verse:

(0:16)

e|--------------------|
B|--------------------|
G|-----5--4-----------|
D|--4--5--4--6--------|
A|--4--3--2--6--------|
E|--2--------4--------|

End verse with:

e|-----|
B|-----|
G|-----|
D|--2--|
A|--2--|
E|--0--|

Chorus:

(0:31)

e|--------------------|
B|--------------------|
G|--4--6--11--9-------|
D|--4--6--11--9-------|
A|--2--4--9---7-------|
E|--------------------|

Solo:

Part 1 (2x)

e|-----------------------------------------------|
B|-----------------------------------------------|
G|-----------------------------------------------|
D|-----8-6-----6-4-3---4-3-1---------------------|
A|---6-----9-4-------2---------2-4---------------|
E|-----------------------------------------------|

Part 2


e|-----------------------------------------------|
B|-----------------------------------------------|
G|------------------------------------9--13--16--|
D|4-3-4----6-4-3-------8-6-----6-4-3--9--13--16--|
A|6---6--------6-5--6-----9-4---------7--11--14--|
E|-----------------------------------------------|


Repeat: Intro
	Chorus
	Verse

End on:

e|--------|
B|--------|
G|--------|
D|---2----|
A|---2----|
E|---0----|




Walk Away (maybe)

Intro Gt.1 (0:00)           (0:06)
e--------------------------|----------------------------------|
B--------------------------|----------------------------------|
G--------------------------|----------------------------------|
D-33-44-88-66--33-44-88-66-|-333-444-888-666--333-444-888-666-|
A-33-44-88-66--33-44-88-66-|-333-444-888-666--333-444-888-666-|
E-11-22-66-44--11-22-66-44-|-111-222-666-444--111-222-666-444-| x1

Intro Gt.2 (0:06)
e------------------------------|
B------------------------------|
G-10-8-66-66--10-8-66-66--10-8-|
D------------------------------|
A------------------------------|
E------------------------------| x1

Verse Gt.1 (0:12)
e-------------------------------------|
B-------------------------------------|
G----------------------------66666666-|
D-88888888-66666666-44444444-66666666-|
A-88888888-66666666-44444444-44444444-|
E-66666666-44444444-22222222----------| x2
  ........ ........ ........ ........

Verse Gt.2 (0:12)
e---------|-------------------------------|
B---------|-------------------------------|
G-6-(x32)-|-6-5-3---5-6-1---3-5-----6-5-3-|
D---------|---------------------4---------|
A---------|-------------------------------|
E---------|-------------------------------| x1

Pre-Chorus (0:37)
e-------------|
B-------------|
G-33----33----|
D-33-44-33-44-|
A-11-44-11-44-|
E----22----22-| x3

Chorus

Verse Gt.1 & 2 (1:01)
Pre-Chorus x2 (1:26)

Chorus (1:32)
e-------------------------------------------|-----------------|----------------------|
B------------------------------------------|-----------------|-----------------------|
G-6666-6666---------------3333-3333|-----------------|-6666-6666---------------3333--|
D-6666-6666-4444-4444-3333-3333|-33-44-88-66-|-6666-6666-4444-4444-3333--------------|
A-4444-4444-4444-4444-1111-1111|-33-44-88-66-|-4444-4444-4444-4444-1111--------------|
E---------------2222-2222--------------|-11-22-66-44-|---------------2222-2222-------|
e------------------------------------------------------------------------------------|
B------------------------------------------------------------------------------------|
G-3333|
D-3333|
A-1111|
E-------|

Break (1:59)
e---------|
B---------|
G---------|
D-4~~-3~~-|
A-4~~-3~~-|
E-2~~-1~~-| x1

Interlude (2:06)
e---------------------------------------------------|
B---------------------------------------------------|
G---------------------------------------------------|
D-88888888-66666666-4-4-4--3-3-3--88888888-66666666-|
A-88888888-66666666-4-4-4--3-3-3--88888888-66666666-|
E-66666666-44444444-2-2-2--1-1-1--66666666-44444444-| x1

Bass Break (2:24)

Chorus (2:33)

Ending (2:57)
e--------------------|
B--------------------|
G--------------------|
D-33-44-88-66--------|
A-33-44-88-66--------|
E-11-22-66-44--------| x4



S.O.S

Intro (Acoustic (0:00)
e--00-000--00-000--00-000-00-000---|
B-00-000--00-000--00-000-00-000----|
G-xx-xxx--11-111--44-444-44-444----|
D-66-666--22-222--44-444-44-444----|
A-66-666--22-222--22-222-22-222----|
E-44-444--00-000--xx-xxx-xx-xxx----| x4

Verse (0:24)
e---------------------------------------------------------------------|
B---------------------------------------------------------------------|
G---------------------------------------------------------------------|
D-2-22-22-2-22-22--4-44-44-4-44-44--6-66-66-6-66-66--9-99-99--9-99-99-|
A-2-22-22-2-22-22--4-44-44-4-44-44--6-66-66-6-66-66--9-99-99--9-99-99-|
E-0-00-00-0-00-00--2-22-22-2-22-22--4-44-44-4-44-44--7-77-77--6-66-66-| x2
  . .. .. . .. ..  . .. .. . .. ..  . .. .. . .. ..  . .. ..  . .. ..

Pre-Chorus (0:45)
e---------------------------------------------|
B---------------------------------------------|
G---------------------------------------------|
D-2-22-22-2-22-22--6~~--6~~--9-99-99--9-99-99-|
A-2-22-22-2-22-22--6~~--6~~--9-99-99--9-99-99-|
E-0-00-00-0-00-00--3~~--4~~--7-77-77--6-66-66-| x1
  . .. .. . .. ..

Chorus (0:57)
e---------------------------|
B---------------------------|
G---------------4444-4444---|
D-6666-2222-4444-4444-------|
A-6666-2222-2222-2222-------|
E-4444-0000-----------------| x4

Verse x2 (1:18)
Pre-chorus (1:40)
Chorus x4 (1:51)

Let ring (2:13)
e-----|
B-----|
G-----|
D-2~~-|
A-2~~-|
E-0~~-|

Interlude (2:17)
e------------------------------------------------------------------------------------------|
B------------------------------------------------------------------------------------------|
G------------------------------------------------------------------------------------------|
D-666-666-666-666-444-444-222-222-666-666-666-666-444-444-222-222-666-666-222-222-999-999--|
A-666-666-666-666-444-444-222-222-666-666-666-666-444-444-222-222-666-666-222-222-999-999--|
E-333-333-444-444-222-222-000-000-333-333-444-444-222-222-000-000-333-333-444-444-777-777--|

Solo (2:47)

(Chorus played by Gt.2)
e------------------------------------------------------------->
B---------------------7-5--------------------------7-5-4-5-4~->
G---88-8-----8-6---44-----8-6-----88-8-----8-6--44------------>
D-99-----9-9-----------------9-6-------9-9-------------------->
A------------------------------------------------------------->
E------------------------------------------------------------->

Solo Cont... (2:58)
e-----------------------------2-----77-7-6-4-----77-7-6-6--{9999}--{7777}--7-6-4-----------|
B-7p5p0-7p5p0-4p2p0-4p2p0-------444----------7-7---------------------------------7-4h5-7~~-|
G-------------------------3h4--------------------------------------------------------------|
D------------------------------------------------------------------------------------------|
A------------------------------------------------------------------------------------------|
E------------------------------------------------------------------------------------------|

Acoustic Ending x4 (Same as Intro) (3:09)



I just wanna live

Intro: Keyboard Cello arranged for guitar
Play 2X

e|--------------------------------------------------|
B|--------------------------------------------------|
G|--------------------------------------------------|
D|-8-----8-----8-----8-----8-----8-----8-----8------|
A|--------------------------------------------------|
D|----8-----8-----6-----6-----4-----4-----6-----6---|

Bass plays for 4 measures

Verse: Keyboard Cello arranged for guitar
then guitar arranged for plays this
e|---------------------------------------|
B|-11 / 14------------------11 \  9------|
G|---------------------------------------|
D|---------------------------------------|
A|---------------------------------------|
D|---------------------------------------|

e|---------------------------------------|
B|---------------------------------------|
G|---------------------------------------|
D|-8----8----8----8----8----8----8----8--|
A|---------------------------------------|
D|---------------------------------------|

e|---------------------------------------|
B|-11 / 14------------------11 \ 9-------|
G|---------------------------------------|
D|-8----8----8----8----8----8----8----8--|
A|---------------------------------------|
D|---------------------------------------|

Pre-Chorus: Keyboard Cello arranged for guitar

  I'm paranoid of all the ...
e|-------------------------------------------------|
B|-------------------------------------------------|
G|-------------------------------------------------|
D|-8-----8-----8-----8-----8-----8-----8-----8-----|
A|-------------------------------------------------|
D|----8-----8-----8-----8-----6-----6-----6-----6--|

                            ...And Why can't anyone see
e|-------------------------------------------------|
B|-------------------------------------------------|
G|-------------------------------------------------|
D|-8-----8-----8-----8-----8-----------------------|
A|-------------------------------------------------|
D|----4-----4-----4-----4-----6--------------------|


CHORUS: Guitars (Play 4 times)

 ...Live
e|---------------------------------------------------------------|
B|---------------------------------------------------------------|
G|-7-----7-----X--X--5--5--X--X--3-----3-----X--X--5--5--X--X----|
D|-8-----8-----X--X--6--6--X--X--4-----4-----X--X--6--6--X--X----|
A|-8-----8-----X--X--6--6--X--X--4-----4-----X--X--6--6--X--X----|
D|-8-----8-----X--X--6--6--X--X--4-----4-----X--X--6--6--X--X----|


End Chorus: Keyboard Cello arranged for guitar
Play once

e|----------------------------------------------|
B|----------------------------------------------|
G|-5------------------------6----8----5----6----|
D|-6----8----8----8----8------------------------|
A|-6--------------------------------------------|
D|-6--------------------------------------------|


Bass plays for 4 measures

Verse 2: Keyboard Cello arranged for guitar
then guitar arranged for plays this
e|---------------------------------------|
B|-11 / 14------------------11 \  9------|
G|---------------------------------------|
D|---------------------------------------|
A|---------------------------------------|
D|---------------------------------------|

Second time this bar is played twice
(note: no chello fill ins this time around)
e|---------------------------------------|
B|---------------------------------------|
G|---------------------------------------|
D|-8----8----8----8----8----8----8----8--|
A|---------------------------------------|
D|---------------------------------------|

Pre-Chorus: Keyboard Cello arranged for guitar

  Lifestyles ...
e|-------------------------------------------------|
B|-------------------------------------------------|
G|-------------------------------------------------|
D|-8-----8-----8-----8-----8-----8-----8-----8-----|
A|-------------------------------------------------|
D|----8-----8-----8-----8-----6-----6-----6-----6--|

                            ...Of the life we live in
e|-------------------------------------------------|
B|-------------------------------------------------|
G|-------------------------------------------------|
D|-8-----8-----8-----8-----8-----------------------|
A|-------------------------------------------------|
D|----4-----4-----4-----4-----6--------------------|

CHORUS: Guitars (Play 3 times)

 ...Live
e|---------------------------------------------------------------|
B|---------------------------------------------------------------|
G|-7-----7-----X--X--5--5--X--X--3-----3-----X--X--5--5--X--X----|
D|-8-----8-----X--X--6--6--X--X--4-----4-----X--X--6--6--X--X----|
A|-8-----8-----X--X--6--6--X--X--4-----4-----X--X--6--6--X--X----|
D|-8-----8-----X--X--6--6--X--X--4-----4-----X--X--6--6--X--X----|

then play this for the 4th time
e|------------------------------------------------------|
B|------------------------------------------------------|
G|-7-----7-----X--X--5--5--X--X-------------------------|
D|-8-----8-----X--X--6--6--X--X----1----1----1--~~~-----|
A|-8-----8-----X--X--6--6--X--X----1----1----1--~~~-----|
D|-8-----8-----X--X--6--6--X--X----1----1----1--~~~-----|

BRIDGE: Guitars

e|----------------------------------------------------|
B|----------------------------------------------------|
G|----------------------------------------------------|
D|--4-----4-----4-----4-----6-----6-----6-----6-------|
A|----------------------------------------------------|
D|-----4-----4-----4-----4-----6-----6-----6-----6----|

e|----------------------------------------------------|
B|----------------------------------------------------|
G|----------------------------------------------------|
D|--4-----4-----4-----4-----8-----8-----6-----6-------|
A|----------------------------------------------------|
D|-----4-----4-----4-----4-----8-----8-----6-----6----|

e|----------------------------------------------------|
B|----------------------------------------------------|
G|----------------------------------------------------|
D|--4-----4-----4-----4-----6-----6-----6-----6-------|
A|----------------------------------------------------|
D|-----4-----4-----4-----4-----6-----6-----6-----6----|

e|-----------------------------------------------------|
B|-----------------------------------------------------|
G|-----------------------------------------------------|
D|--4-----4-----4-----4--------------------------------|
A|-----------------------------------------3--3--8--8--|
D|-----4-----4-----4-----4----3--3--6--6---------------|

CHORUS: Guitars (Play 1 time)

  Now we are expected....
e|---------------------------------------------------------------|
B|---------------------------------------------------------------|
G|-7-----7-----X--X--5--5--X--X--3-----3-----X--X--5--5--X--X----|
D|-8-----8-----X--X--6--6--X--X--4-----4-----X--X--6--6--X--X----|
A|-8-----8-----X--X--6--6--X--X--4-----4-----X--X--6--6--X--X----|
D|-8-----8-----X--X--6--6--X--X--4-----4-----X--X--6--6--X--X----|

then play this for the 2nd time     I just wanna...
e|------------------------------------------------------|
B|------------------------------------------------------|
G|-7-----7-----X--X--5--5--X--X--3----------------------|
D|-8-----8-----X--X--6--6--X--X--4----------------------|
A|-8-----8-----X--X--6--6--X--X--4----------------------|
D|-8-----8-----X--X--6--6--X--X--4----------------------|
                                  [stop]

play this 2 times
 ...live
e|---------------------------------------------------------------|
B|---------------------------------------------------------------|
G|-7-----7-----X--X--5--5--X--X--3-----3-----X--X--5--5--X--X----|
D|-8-----8-----X--X--6--6--X--X--4-----4-----X--X--6--6--X--X----|
A|-8-----8-----X--X--6--6--X--X--4-----4-----X--X--6--6--X--X----|
D|-8-----8-----X--X--6--6--X--X--4-----4-----X--X--6--6--X--X----|

then play this for the 3rd time
e|--------------------------------------------|
B|--------------------------------------------|
G|-7-----7-----X--X--5--5--X--X---------------|
D|-8-----8-----X--X--6--6--X--X----1--~~~-----|
A|-8-----8-----X--X--6--6--X--X----1--~~~-----|
D|-8-----8-----X--X--6--6--X--X----1--~~~-----|

OUTRO: Guitars

play this 3 times
e|---------------------------------------------------------------|
B|---------------------------------------------------------------|
G|-7-----7-----X--X--5--5--X--X--3-----3-----X--X--5--5--X--X----|
D|-8-----8-----X--X--6--6--X--X--4-----4-----X--X--6--6--X--X----|
A|-8-----8-----X--X--6--6--X--X--4-----4-----X--X--6--6--X--X----|
D|-8-----8-----X--X--6--6--X--X--4-----4-----X--X--6--6--X--X----|

then play this for the last time
e|--------------------------------------------|
B|--------------------------------------------|
G|-7-----7-----X--X--5--5--X--X---------------|
D|-8-----8-----X--X--6--6--X--X----1--~~~-----|
A|-8-----8-----X--X--6--6--X--X----1--~~~-----|
D|-8-----8-----X--X--6--6--X--X----1--~~~-----|
Ghost of you


Intro: Am - G - Em - F   x2


Verse:
Am                        G
And I will wait until the end
         Em                              F
When the pendulum will swing back to the darker side of our hearts bleeding
Am                     G                            Em
I will save this empty space next to me like it's a grave
                        F
Where I lay a place for us to sleep eternally together


Prechorus:
G Em   F    G    Em   F   G   Em F  G    Em F
I have been searching for traces of what we were


Chorus:
C                Em
A ghost of you is all that I have left
    F                               Fm
It's all that I have left of you to hold
C                                   Em
I wake in the night to find there's no one there but me
    F                               Fm
And nothing left of what we were at all


Am - G - Em - F


Verse:
Am                        G
So here I am pacing around this house again
     Em                             F
With pictures of us living on these walls
Am                                 G
I see my breath in the cold of the air that I breathe and I'm wondering
    Em
I'm wondering if it's you that I feel
        F
If it's you that I feel here haunting me forever


Prechorus:
G Em   F    G    Em   F   G   Em F  G    Em F
I have been searching for traces of what we were


Chorus:
C                Em
A ghost of you is all that I have left
    F                               Fm
It's all that I have left of you to hold
C                                   Em
I wake in the night to find there's no one there but me
    F                               Fm
And nothing left of what we were at all


Bridge:
Dm                     C                  G
And I'm not looking for anything but us
                     F
Anything but what we were
Dm                    C                  G
And I'm not asking for painted memories
                           F
I only want to know you're here


Chorus:
C                Em
A ghost of you is all that I have left
    F                               Fm
It's all that I have left of you to hold
C                                   Em
I wake in the night to find there's no one there but me
    F                               Fm
And nothing left of what we were at all

C                Em
A ghost of you is all that I have left
    F                               Fm
It's all that I have left of you to hold
C                                   Em
I wake in the night to find there's no one there but me
    F                               Fm
And nothing left of what we were at all

Predictable
Strings intro
e|----------------------------|----------------------------|
B|-4-4--4-4---5-5--5-5---5--5-|----------------------------|
G|-4-4--4-4---4-4--4-4---4--4-|-4-4--4-4---4-4--4-4---4--4-|
D|----------------------------|-1-1--1-1---2-2--2-2---2--2-|
A|----------------------------|----------------------------|
E|----------------------------|----------------------------|

Lead fill 1		Lead fill 2
e|-------12--11--|		e|---9---7--|
B|---12----------|		B|----------|
G|---------------|		G|----------|
D|---------------|		D|----------|
A|---------------|		A|----------|
E|---------------|		E|----------|

Intro
Both guitars
e|---------------------|
B|---------------------|
G|-------------------4-|
D|-6-6--6-6--6-6-----4-|
A|-6-6--6-6--6-6-----2-|
E|-4-4--4-4--4-4--3----|

Chorus
Guitar 1
e|---------------------------------|---------------------------------|
B|---------------------------------|---------------------------------|
G|-4-4-4-4-4-4-4-4-4-4-4-4-4-4-4-4-|---------------------------------|
D|-4-4-4-4-4-4-4-4-4-4-4-4-4-4-4-4-|-5-5-5-5-5-5-5-5-5-5-5-5-5-5-5-5-|
A|-2-2-2-2-2-2-2-2-2-2-2-2-2-2-2-2-|-5-5-5-5-5-5-5-5-5-5-5-5-5-5-5-5-|
E|---------------------------------|-3-3-3-3-3-3-3-3-3-3-3-3-3-3-3-3-|

Guitar 2
e|---------------------------------|---------------------------------|
B|---------------------------------|---------------------------------|
G|---------------------------------|---------------------------------|
D|------3-------3-------3-------3--|------4-------4-------4-------4--|
A|----4-------4-------4-------4----|----4-------4-------4-------4----|
E|--2-------2-------2-------2------|--2-------2-------2-------2------|

Guitar 1
e|---------------------------------|---------------------------------|
B|---------------------------------|---------------------------------|
G|---------------------------------|---------------------------------|
D|-7-7-7-7-7-7-7-7-7-7-7-7-7-7-7-7-|-3-3-3-3-3-3-3-3-3-3-3-3-3-3-3-3-|
A|-7-7-7-7-7-7-7-7-7-7-7-7-7-7-7-7-|-3-3-3-3-3-3-3-3-3-3-3-3-3-3-3-3-|
E|-5-5-5-5-5-5-5-5-5-5-5-5-5-5-5-5-|-1-1-1-1-1-1-1-1-1-1-1-1-1-1-1-1-|

Guitar 2
e|---------------------------------|---------------------------------|
B|---------------------------------|---------------------------------|
G|---------------------------------|---------------------------------|
D|------5-------5-------5-------5--|------4-------4-------4-------4--|
A|----4-------4-------4-------4----|----4-------4-------4-------4----|
E|--2-------2-------2-------2------|--2-------2-------2-------2------|

Post Chorus
Both guitars
e|--------------------|
B|--------------------|
G|--------------------|
D|-6-6--6-6--6-6--6-6-|
A|-6-6--6-6--6-6--6-6-|
E|-4-4--4-4--4-4--4-4-|

Post chorus fill
Guitar 2
e|-------|
B|-18\---|
G|-17\---|
D|-------|
A|-------|
E|-------|

Verse 2 part 1
Guitar 1
e|----------------------------|----------------------------|
B|-4-4--4-4---5-5--5-5---5--5-|----------------------------|
G|-4-4--4-4---4-4--4-4---4--4-|-4-4--4-4---4-4--4-4---4--4-|
D|----------------------------|-1-1--1-1---2-2--2-2---2--2-|
A|----------------------------|----------------------------|
E|----------------------------|----------------------------|

Guitar 2
e|--------------------------------------------------12--11-|
B|-----------------------------------------------12--------|
G|---------------------------------------------------------|
D|---------------------------------------------------------|
A|---------------------------------------------------------|
E|---------------------------------------------------------|

Verse 2 part 2
Guitar 1
e|----------------------------|----------------------------|
B|-4-4--4-4---5-5--5-5---5--5-|----------------------------|
G|-4-4--4-4---4-4--4-4---4--4-|-4-4--4-4---4-4--4-4---4--4-|
D|----------------------------|-1-1--1-1---2-2--2-2---2--2-|
A|----------------------------|----------------------------|
E|----------------------------|----------------------------|

Guitar 2
e|----------------------9--7------------------------12--11-|
B|-----------------------------------------------12--------|
G|---------------------------------------------------------|
D|---------------------------------------------------------|
A|---------------------------------------------------------|
E|---------------------------------------------------------|

Pre Chorus
Guitar 1
e|----------------------------|---------------------|
B|-4-4--4-4---5-5--5-5---5--5-|---------------------|
G|-4-4--4-4---4-4--4-4---4--4-|-------------------4-|
D|----------------------------|-6-6--6-6--6-6-----4-|
A|----------------------------|-6-6--6-6--6-6-----2-|
E|----------------------------|-4-4--4-4--4-4--3----|

Guitar 2
e|----------------------9--7--|---------------------|
B|----------------------------|---------------------|
G|----------------------------|-------------------4-|
D|----------------------------|-6-6--6-6--6-6-----4-|
A|----------------------------|-6-6--6-6--6-6-----2-|
E|----------------------------|-4-4--4-4--4-4--3----|

Breakdown
Both guitars
e|-----------------------------------------------------------------------------|
B|-----------------------------------------------------------------------------|
G|-----------------------------------------4-4-4-4-----------------------------|
D|-2-2-2-2-2-4-4-4-4-4-2-2-2-2-2-6-6-6-6-6-4-4-4-4--4-4-4-4-4-2-2-2-2-6-6-6-6-6|
A|-2-2-2-2-2-4-4-4-4-4-2-2-2-2-2-6-6-6-6-6-2-2-2-2--4-4-4-4-4-2-2-2-2-6-6-6-6-6|
E|-0-0-0-0-0-2-2-2-2-2-0-0-0-0-0-4-4-4-4-4----------2-2-2-2-2-0-0-0-0-4-4-4-4-4|

Bridge
Guitar 1
e|-----------------------------------------------------------|
B|-----------------------------------------------------------|
G|---------------------------------------------------------4-|
D|-6-6-------------------------6-6-----7--7-----6-6-----6--4-|
A|-6-6-------------------------6-6-----7--7-----6-6-----6--2-|
E|-4-4-------------------------4-4-----5--5-----4-4-----4----|

Guitar 2
e|-6-7-4-6-0-4---0-----------|-6-7-4-6-0-4-0--0---0---0------|
B|-------------4---2-4-0-4---|--------------4---2---4---0-4--|
G|-------------------------1-|-----------------------------1-|
D|---------------------------|-------------------------------|
A|---------------------------|-------------------------------|
E|---------------------------|-------------------------------|

Outro
Guitar 1
e|-----------------|-----------------|-----------------|------------|
B|-----------------|-----------------|-----------------|------------|
G|-----------------|-----------------|-----------------|------------|
D|-2-2-------------|-2-2-------------|-2-2-------------|----6~~~~~--|
A|-2-2-------------|-2-2-------------|-2-2-------------|----6~~~~~--|
E|-0-0-------------|-0-0-------------|-0-0-------------|-4--4~~~~~--|

Guitar 2
e|-----------------|-----------------|-----------------|------------|
B|-----------------|-----------------|-----------------|------------|
G|-----------------|-----------------|-----------------|------------|
D|------0-33-------|------0-33-------|------0-33-------|----6~~~~~--|
A|------------4--2-|------------4--2-|------------4--2-|----6~~~~~--|
E|-0-0-------------|-0-0-------------|-0-0-------------|-4--4~~~~~--|

Secrets
Intro
E-----x---x---x---x---x--x---x--| x3
B-----x---x---x---x---x--x---x--|
G-----8---7---5---3---x--3---8--|
D-----9---8---6---4---2--4---9--|
A-----9---8---6---4---2--4---9--|
E-----7---6---4---2------2---7--|

Lead Intro:
E--------------------------------------| X2
B--------------------------------------|
G--11----6----9----8----4---6-4(ring)--|
D--------------------------------------|
A--------------------------------------|
E--------------------------------------|

Verse:
E---x-x-x(Palm Mute)---x-x-x(Palm Mute)---x-(Palm Mute)---xx-|
B---x-x-x           ---x-x-x           ---x-           ---xx-|
G---8-x-x           ---5-x-x           ---x-           ---8x-|
D---9-x-x           ---6-x-x           ---2-           ---9x-|
A---9-x-x           ---6-x-x           ---2-           ---9x-|
E---7-x-x           ---4-x-x           -----           ---7x-|


E---x-x-x(Palm Mute)---x-x-x(Palm Mute)---x-x(Palm Mute)---x-|
B---x-x-x           ---x-x-x           ---x-x           ---x-|
G---8-x-x           ---5-x-x           ---x-x           ---3-|
D---9-x-x           ---6-x-x           ---2-x           ---4-|
A---9-x-x           ---6-x-x           ---2-x           ---4-|
E---7-x-x           ---4-x-x           -----x           ---2-|

Chorus:
E-----x---x---x---x---x--x---x--| x2
B-----x---x---x---x---x--x---x--|
G-----8---7---5---3---x--3---8--|
D-----9---8---6---4---2--4---9--|
A-----9---8---6---4---2--4---9--|
E-----7---6---4---2------2---7--|

E---x--x--x---------------------| x4
B---x--x--5-----(Lead-5-4-2)----|
G---8--3--6---------------------|
D---9--4--6---------------------|
A---9--4--4---------------------|
E---7--2------------------------|

E-----x---x---x---x---x--x---x--| x1
B-----x---x---x---x---x--x---x--|
G-----8---7---5---3---x--3---8--|
D-----9---8---6---4---2--4---9--|
A-----9---8---6---4---2--4---9--|
E-----7---6---4---2------2---7--|

Verse:
E---x-x-x(Palm Mute)---x-x-x(Palm Mute)---x-(Palm Mute)---xx-|
B---x-x-x           ---x-x-x           ---x-           ---xx-|
G---8-x-x           ---5-x-x           ---x-           ---8x-|
D---9-x-x           ---6-x-x           ---2-           ---9x-|
A---9-x-x           ---6-x-x           ---2-           ---9x-|
E---7-x-x           ---4-x-x           -----           ---7x-|


E---x-x-x(Palm Mute)---x-x-x(Palm Mute)---x-x(Palm Mute)---x-|
B---x-x-x           ---x-x-x           ---x-x           ---x-|
G---8-x-x           ---5-x-x           ---x-x           ---3-|
D---9-x-x           ---6-x-x           ---2-x           ---4-|
A---9-x-x           ---6-x-x           ---2-x           ---4-|
E---7-x-x           ---4-x-x           -----x           ---2-|

Chorus:
E-----x---x---x---x---x--x---x--| x2
B-----x---x---x---x---x--x---x--|
G-----8---7---5---3---x--3---8--|
D-----9---8---6---4---2--4---9--|
A-----9---8---6---4---2--4---9--|
E-----7---6---4---2------2---7--|

E---x--x--x---------------------| x4
B---x--x--5-----(Lead-5-4-2)----|
G---8--3--6---------------------|
D---9--4--6---------------------|
A---9--4--4---------------------|
E---7--2------------------------|

E-----x---x---x---x---x--x---x--| x1
B-----x---x---x---x---x--x---x--|
G-----8---7---5---3---x--3---8--|
D-----9---8---6---4---2--4---9--|
A-----9---8---6---4---2--4---9--|
E-----7---6---4---2------2---7--|

Bridge:No Guitar here, but played same as 2nd part of chorus, play if u want 2...
Then comes back in low then louder w/ same riff. Add lead B-5-4-2.

E---x--x--x---------------------| x6
B---x--x--5---------------------|
G---8--3--6---------------------|
D---9--4--6---------------------|
A---9--4--4---------------------|
E---7--2------------------------|

OR

E--------------------------------------| X2
B--------------------------------------|
G--11----6----9----8----4---6-4(ring)--|
D--------------------------------------|
A--------------------------------------|
E--------------------------------------|

End Lead:
E-----------------------------------|
B-----------------------------------|
G---4-(H)6------------------9-------|(Ring)
D-----------------------------------|
A-----------------------------------|
E-----------------------------------|


The Truth
       F# Bm
So here we are

We are alone   F# Bm

This weight on your mind F# Bm

I wanna know  F# Bm

(same for second verse)

   Chorus

I want the truth F#

From you    Em

Give me the truth F#

Even if it hurts me C#

I want the truth F# Bm

   Verse 2

So this is you F# Bm
Talking to me F# Bm

(same progression for further verse lines)

(Chorus)

   Bridge

Em                    Bb m
I know that this will break me
                       Bm
I know that this will make me cry
                         C#
Gotta say whats on your mind, on your mind
Em                    Bb m
I know that this will hurt me,
                        Bm
And break my heart and soul inside
               C#
I don't wanna live this lie

(Chorus)

varying chords like Em, F# Bm etc..

Outro
F# Bm F# Bm

The world is black
Guitar1

Verses
E--------------------------------------------------------|
H--------------------------------------------------------|
G--------------------------------------------------------|
D-6-66-66-8-88-88-10-1010-1010-8-88-1010-6-66-66-8-88-88-|
A-6-66-66-8-88-88-10-1010-1010-8-88-1010-6-66-66-8-88-88-|
E-4-44-44-6-66-66-8--8-8--8-8--6-66-8-8--4-44-44-6-66-66-|

---------|
---------|
---------| 2x
10-------|
10-(16x)-|
8--------|

Chorus
E-------------------------------|
H-------------------------------|
G-------------------------------| 2x
D-6-66------5-55------8-88------|
A-6-66-(8x)-5-55-(4x)-8-88-(4x)-|
E-4-44------3-33------6-66------|

Verses
E--------------------------------------------------------|
H--------------------------------------------------------|
G--------------------------------------------------------|
D-6-66-66-8-88-88-10-1010-1010-8-88-1010-6-66-66-8-88-88-|
A-6-66-66-8-88-88-10-1010-1010-8-88-1010-6-66-66-8-88-88-|
E-4-44-44-6-66-66-8--8-8--8-8--6-66-8-8--4-44-44-6-66-66-|

---------|
---------|
---------| 2x
10-------|
10-(16x)-|
8--------|

Chorus
E-------------------------------|
H-------------------------------|
G-------------------------------|
D-6-66------5-55------8-88------|
A-6-66-(8x)-5-55-(4x)-8-88-(4x)-|
E-4-44------3-33------6-66------|

E-------------------------------|
H-------------------------------|
G-------------------------------|
D-6-66------5-55------8-88------|
A-6-66-(8x)-5-55-(4x)-8-88-(8x)-|
E-4-44------3-33------6-66------|

Bridge-Part
E--------------------------------------------------------|
H--------------------------------------------------------|
G-----------------6-66-66-------------------------6------| 2x
D-6-66-66-5-55-55-6-66-66-3-33-33-6-66-66-5-55-55-6-(16x)|
A-6-66-66-5-55-55-4-44-44-3-33-33-6-66-66-5-55-55-4------|
E-4-44-44-3-33-33---------1-11-11-4-44-44-3-33-33--------|

E-----------------------------------|
H-----------------------------------|
G-5-------5-------4-------5---------|
D-6-------6-------5-------8-8-------|
A-6-------6-------5-------8-8-(14x)-|
E-4-------4-------3-------6-6-------|

Chorus
E--------------------------------|
H--------------------------------|
G--------------------------------|
D-6-66------5-55------8-88-------|
A-6-66-(8x)-5-55-(4x)-8-88-(10x)-|
E-4-44------3-33------6-66-------|

Outro
E--------------------------------------------------------|
H--------------------------------------------------------|
G--------------------------------------------------------|
D-6-66-66-8-88-88-10-1010-1010-8-88-1010-6-66-66-8-88-88-|
A-6-66-66-8-88-88-10-1010-1010-8-88-1010-6-66-66-8-88-88-|
E-4-44-44-6-66-66-8--8-8--8-8--6-66-8-8--4-44-44-6-66-66-|

--------|
--------|
--------|
10------|
10------|
8-------|

Guitar2

Chorus
E---------------------------------------------------------|
H---------------------------------------------------------|
G---------------------------------------------------------|
D-----66665555--------66665555--------66665555------------|
A-6666--------88884444--------88883333--------88884444666-|
E---------------------------------------------------------|

---------|
---------|
---------| 2x
-33335555|
6--------|
---------|

Verses
E--------------------------------------------------------|
H--------------------------------------------------------|
G--------------------------------------------------------|
D-3------------------------------------------------------|
A--------------------------------------------------------|
E--------------------------------------------------------|

E-20-------------------------------21-------18-------20--|
H--------------------------------------------------------|
G--------------------------------------------------------|
D--------------------------------------------------------|
A--------------------------------------------------------|
E--------------------------------------------------------|

Chorus
E---------------------------------------------------------|
H---------------------------------------------------------|
G---------------------------------------------------------|
D-----66665555--------66665555--------66665555------------|
A-6666--------88884444--------88883333--------88884444666-|
E---------------------------------------------------------|

---------|
---------|
---------|
-33335555|
6--------|
---------|

E---------------------------------------------------------|
H---------------------------------------------------------|
G---------------------------------------------------------|
D-----66665555--------66665555--------66665555------------|
A-6666--------88884444--------88883333--------88884444666-|
E---------------------------------------------------------|

-------------------------|
-------------------------|
-------------------------|
-333355555555555577777777|
6------------------------|
-------------------------|

Chorus
E---------------------------------------------------------|
H---------------------------------------------------------|
G---------------------------------------------------------|
D-----66665555--------66665555--------66665555------------|
A-6666--------88884444--------88883333--------88884444666-|
E---------------------------------------------------------|

-----------------------------------|
-----------------------------------|
-----------------------------------|
-3333555555555555777777779999999911|
6----------------------------------|
-----------------------------------|

Synth

Verses
E--------------------------------------------------------|
H--------------------------------------------------------|
G-5-3-1-------3-------1-------3---5-3-1-------3-------1--| 2x
D--------------------------------------------------------|
A--------------------------------------------------------|
E--------------------------------------------------------|

Pre-Chorus (Muted)
E---------------------------------------------------------|
H---------------------------------------------------------|
G--------------------------------------------------x------|
D-6-------5-------11-------3-------6-------5-------x-6666-|
A-6-------5-------11-------3-------6-------5-------x-6666-|
E--------------------------------------------------x------|

----------|
----------|
----------|
666-------|
666-------|
----------|

Verses
E--------------------------------------------------------|
H--------------------------------------------------------|
G-5-3-1-------3-------1-------3---5-3-1-------3-------1--| 2x
D--------------------------------------------------------|
A--------------------------------------------------------|
E--------------------------------------------------------|

Pre-Chorus (Muted)
E---------------------------------------------------------|
H---------------------------------------------------------|
G--------------------------------------------------x------|
D-6-------5-------11-------3-------6-------5-------x-6666-|
A-6-------5-------11-------3-------6-------5-------x-6666-|
E--------------------------------------------------x------|

----------|
----------|
----------|
666-------|
666-------|
----------|

mountain

Intro : Clean                        Gain (X2 to get 16 hits)
e|-----------------------------------|-----------------|
b|-----------------------------------|-----------------|
g|-----------------------------------|-----------------|
d|----6---6-----------6--------6---6-|-4-4-4-4-4-4-4-4-|
a|----3---4----4---4-----------3---4-|-4-4-4-4-4-4-4-4-|
e|---------------2-------------------|-2-2-2-2-2-2-2-2-|

(guitar 1) : Gain (X2)
e|---------------------------------------------|
b|---------------------------------------------|
g|---------------------------------------------|
d|----6-6-6----4-4-4-4-4-4-4-4-4-4-4-4-4-4-4-4-|
a|----3-3-4----4-4-4-4-4-4-4-4-4-4-4-4-4-4-4-4-|
e|-------------2-2-2-2-2-2-2-2-2-2-2-2-2-2-2-2-|

(guitar 2 simultaneous with guitar 1) : Gain (X2)
e|-------------1-2-----------------------------|
b|----4-4-2------------------------------------|
g|---------------------------------------------|
d|---------------------------------------------|
a|---------------------------------------------|
e|---------------------------------------------|

Verse : Gain (X2)
e|--------------------------------------------|
b|--------------------------------------------|
g|--------------------------------------------|
d|------------------------4-4-4-4--4-4-4-4----|
a|----4-4-4-4--6-6-6-6----4-4-4-4--4-4-4-4----|
e|----4-4-4-4--6-6-6-6----2-2-2-2--2-2-2-2----|

e|--------------------------------------------|
b|--------------------------------------------|
g|----4-4-4-4--3-3-3-3------------------------|
d|----4-4-4-4--3-3-3-3----4-4-4-4--4-4-4-4----|
a|----2-2-2-2--1-1-1-1----4-4-4-4--4-4-4-4----|
e|------------------------2-2-2-2--2-2-2-2----|

Chorus : Gain (X2)

e|--------------------------|
b|--------------------------|
g|--------------------------|
d|--------------------------|
a|----4--4-4----6--6-8-11---|
e|----2--2-4----4--4-6-9----|

e|--------------------------|
b|--------------------------|
g|--------------------------|
d|--------------------------|
a|----4--4-4----6-----------|
e|----2--2-4----4-----------|

Pre-Verse : Clean                    Gain (X2 to get 16 hits)
e|-----------------------------------|-----------------|
b|-----------------------------------|-----------------|
g|-----------------------------------|-----------------|
d|----6---6-----------6--------6---6-|-4-4-4-4-4-4-4-4-|
a|----3---4----4---4-----------3---4-|-4-4-4-4-4-4-4-4-|
e|---------------2-------------------|-2-2-2-2-2-2-2-2-|

Gain (X2)
e|---------------------------------------------|
b|---------------------------------------------|
g|---------------------------------------------|
d|----6-6-6----4-4-4-4-4-4-4-4-4-4-4-4-4-4-4-4-|
a|----3-3-4----4-4-4-4-4-4-4-4-4-4-4-4-4-4-4-4-|
e|-------------2-2-2-2-2-2-2-2-2-2-2-2-2-2-2-2-|

(verse with less mute)

(chorus)

(pre-verse)

Bridge : Gain (X2)

e|--------------------------|
b|--------------------------|
g|--------------------------|
d|---------6----6--6-4------|
a|----8--8-4----6--6-4------|
e|----6--6------4--4-2------|

e|--------------------------|
b|--------------------------|
g|--------------------------|
d|---------6----6-----------|
a|----8--8-4----6-----------|
e|----6--6------4-----------|

Pre-Verse : Clean (X2)
e|----------------------|
b|----------------------|
g|----------------------|
d|----6---6-----------6-|
a|----3---4----4---4----|
e|---------------2------|

(guitar 1) Gain (X2) muted
e|----------------------------------------------------------------|
b|----------------------------------------------------------------|
g|----------------------------------------------------------------|
d|----6-6-6-6-6-6-6-6-6-6-6-6-6-6---------------------------------|
a|----3-3-3-3-3-3-4-4-4-4-4-4-4-4-4-4-4-4-4-4-4-4-4-4-4-4-4-4-4-4-|
e|--------------------------------2-2-2-2-2-2-2-2-2-2-2-2-2-2-2-2-|

(guitar 2 simultaneous with guitar 1) Gain (X4) muted
e|----------------4-4-4----------------|
b|----4-4-4-2-2-2-------2-2-4-4-6-6----|
g|-------------------------------------|
d|-------------------------------------|
a|-------------------------------------|
e|-------------------------------------|

Gain (X2)
e|---------------------------------------------|
b|---------------------------------------------|
g|---------------------------------------------|
d|----6-6-6----4-4-4-4-4-4-4-4-4-4-4-4-4-4-4-4-|
a|----3-3-4----4-4-4-4-4-4-4-4-4-4-4-4-4-4-4-4-|
e|-------------2-2-2-2-2-2-2-2-2-2-2-2-2-2-2-2-|

Outro : Gain (X2)

e|---------------------------------------------|
b|---------------------------------------------|
g|---------------------------------------------|
d|---------------------------------------------|
a|----4-4----4-4-4-4-4----4-4----4-4-4-4--4-4--|
e|----2-2----2-2-2-2-2----2-2----2-2-2-2--2-4--|

Gain (X2)
e|---------------------------------------------|
b|---------------------------------------------|
g|---------------------------------------------|
d|---------------------------------------------|
a|----3-3----3-3-3-3-3----3-3----4-4-4-4--4-4--|
e|----2-2----2-2-2-2-2----2-2----2-2-2-2--2-4--|

We Believe
Tuning: 1/2 step down

Intro/verse 1 and 2, guitar 1:

eb|-------3--3--3-3-3---------3--3--3-3-3---------3--3--3-3-3---------3--3--3-3-3-------|
Bb|-------3--3--3-3-3---------3--3--3-3-3---------3--3--3-3-3---------3--3--3-3-3-------|
Gb|---------------------------------------------------------------------------------x2--|
Db|--2-------------------0--------------------------------------------------------------|
Ab|------------------------------------------3-------------------3----------------------|
Eb|-------------------------------------------------------------------------------------|
|
| Verse 1 and 2, guitar 2(acoustic):
|Em D C
eb|--0-----------------------2---2--2-2-2-----------------------------------------------|
Bb|--0-----------------------3---3--3-3-3-------1---------1--1-1-1-----1-----1-1-1------|
Gb|--0-----------------------2---2--2-2-2-------0---------0--0-0-0-----0-----0-0-0------|
Db|--2-----------------------0---0--0-0-0-------2---------2--2-2-2-----2-----2-2-2------|
Ab|--2------------------------------------------3---------3--3-3-3-----3-----3-3-3------|
Eb|--0----------------------------------------------------------------------------------|
There’s a woman crying out tonight, Her world has changed, She asks god
Her only son has died and now her daughter cries, she can\'t sleep at night,

Verse 1 and 2 (part 2), guitar 3:
Em D C
eb|---------12----------------------14-----------------------15-------------------------|
Bb|-----------------------------------------------------------------13------------------|
Gb|-------------------------------------------------------------------------------------|
Db|-------------------------------------------------------------------------------------|
Ab|-------------------------------------------------------------------------------------|
Eb|-------------------------------------------------------------------------------------|
Downtown, another day for all the suits and ties, (1)another war to fight,
(2)there’s no regard for life

Em D C
eb|--------------12------------------------14---------------------------15------15------|
Bb|-------------------------------------------------------------------------13------13--|
Gb|-------------------------------------------------------------------------------------|
Db|-------------------------------------------------------------------------------------|
Ab|-------------------------------------------------------------------------------------|
Eb|-------------------------------------------------------------------------------------|
How do they sleep at night, how can we make things right? Just wanna make this right..

Chorus:
Em G D C
eb|------0----0----0-0-0----------3----3----3-3-3--------2-----2---2-2-2---------------|
Bb|------0----0----0-0-0----------3----3----3-3-3--------3-----3---3-3-3-----------1-1-|
Gb|------0----0----0-0-0----------0----0----0-0-0--------2-----2---2-2-2-----------0-0-|
Db|------2----2----2-2-2----------0----0----0-0-0--------0-----0---0-0-0-----------2-2-|
Ab|------2----2----2-2-2----------2----2----2-2-3----------------------------------3-3-|
Eb|------0----0----0-0-0----------3----3----3-3-3--------------------------------------|
We believe, we believe, we believe, we believe, we believe, we believe, in this life

Bridge(part 1) :
Em G C Em G C D
eb|--0-------3--------------------0-------3---------------2-----------------------------|
Bb|--0-------3-------1------------0-------3-------1-------3-----------------------------|
Gb|--0-------0-------0------------0-------0-------0-------2-----------------------------|
Db|--2-------0-------2------------2-------0-------2-------0-----------------------------|
Ab|--2-------2-------3------------2-------2-------3-------------------------------------|
Eb|--0-------3--------------------0-------3---------------------------------------------|

(part 2)
Em G C
So this world, is to much, for you to take, just lay down and follow me,
Em G C D
I’ll be everything you need, in every way

Last chorus:
Em G
eb|-------------------------------------------------------------------------------------|
Bb|--8-7-5-8-7-5-8-7-5-8-7-5-7-8-7-8-7-5-8-7-5-8-7-5-8-7-5-7-8-7---8-7---8-7---8-7------|
Gb|--------------------------------------------------------------7-----7-----7-----7----|
Db|-------------------------------------------------------------------------------------|
Ab|-------------------------------------------------------------------------------------|
Eb|-------------------------------------------------------------------------------------|
D
eb|-------------------------------------------------------------------------------------|
Bb|-8-7---7-8-7---8-7---8-7---8-7---8-7---7-8-7---8-7---8-7---8-7---8-7---7-8-7---8-7---|
Gb|-----7-------7-----7-----7-----7-----7-------5-----5-----5-----5-----5-------5-----5-|
Db|-------------------------------------------------------------------------------------|
Ab|-------------------------------------------------------------------------------------|
Eb|-------------------------------------------------------------------------------------|
C
eb|-------------------------------------------------------------------------------------|
Bb|-8-7---8-7---8-7---7-8-7---8-7---8-7---8-7---7-8-7---8-7---8-7---8-7---8-7---7-------|
Gb|-----5-----5-----5-------7-----7-----7-----7-------7-----7-----7-----7-----7---------|
Db|-------------------------------------------------------------------------------------|
Ab|-------------------------------------------------------------------------------------|
Eb|-------------------------------------------------------------------------------------|

Outro:

eb|-------------------------------------------------------------------------------------|
Bb|-8p7p5-8p7p5-8p7p5-8p7p5-5-----------------------------------------------------------|
Gb|-------------------------------------------------------------------------------------|
Db|-------------------------------------------------------------------------------------|
Ab|-------------------------------------------------------------------------------------|
Eb|-------------------------------------------------------------------------------------|

It Wasn’t Enough

Intro:
C#m           G#
   It wasn't enough... x3


Verse 1:
C#       G#     F#            G#                 C#          G#
I would try to belive in the things I can not see. But my faith is shaken
 F#            G#              C#               G#             F#
now like it's never been before. When I call and You don't come I don't
 G#                 C#                 G#       F#           G#
know what I should do. Should I call? Should I even count on You?


Chorus:
C#m                  G#
   I've given all I can...(It wasn't enough)
C#m                  G#
   To keep You in my hands...(It wasn't enough)
C#m                 G#
   I don't understand...(was it even enough?)
C#m                  G#
   I Don't understand...


Verse 2:
C#         G#           F#       G#                  C#               G#
So here I am. once again with my back against the wall. Afraid to show you.
          F#                      G#                 C#            G#
Afraid to tell you. That I don't know you like I did. I've never felt so
      F#            G#              C#          G#                    F#
alone. I've never felt so inscure. Now I don't know where I'm going. In my
 G#                C#m
life I'm not so sure.


Chorus:
C#m                  G#
   I've given all I can...(It wasn't enough)
C#m                  G#
   To keep You in my hands...(It wasn't enough)
C#m                 G#
   I don't understand...(was it even enough?)
C#m                  G#
   I Don't understand...


Bridge:
Dm         A#         Dm                    A#
Giving up tonight... I won't let go, won't let go of you
Dm         A#          Dm               A#
Giving Up tonight... I wanna show you, wanna show you
Dm                  A#
Giving up tonight. Am I giving up?
F#   A  A#
I don't wanna give this up.


Chorus:
C#m                  G#
   I've given all I can...(It wasn't enough)
C#m                  G#
   To keep You in my hands...(It wasn't enough)
C#m                 G#
   I don't understand...(was it even enough?)
C#m                  G#
   I Don't understand...

In this World(murder)

Guitar 1 tuning: Half a step down
Guitar 2 tuning: Half a step down

INTRO (guitar 1):
eb-0~---|
Bb-0~---|
Gb-2~---|
Db-2~---| x2
Ab-0~---|
Eb-0~---|

INTRO (guitar 2)
eb-----0------|
Bb-0-1---0-1--|
Bb------------|
Gb------------|
Db------------| x4
Ab------------|
Eb------------|

INTRO 2 (guitar 1 with distortion; not exact amount):
eb----------------------------------------------|
Bb----------------------------------------------|
Gb--------------------555555555-----------------|
Db--66666666-55555555-555555555-77777777--------|
Ab--66666666-55555555-333333333-77777777--------|
Eb--44444444-33333333-----------55555555--------|

INTRO 2 (guitar 2; you could either play the notes fast or just hold them)
eb-----------------------------------------|
Bb-----------------------------------------|
Gb-13~~~~~~~-12~~~~~~~-17~~~~~~~-16~~~~~~~-|
Db-----------------------------------------|
Ab-----------------------------------------|
Eb-----------------------------------------|

GUITAR 1 CONT'D
eb----------------------------|
Bb----------------------------|
Gb----------------------------|
Db--66666666-5555555555555555-|
Ab--66666666-5555555555555555-|
Eb--44444444-3333333333333333-|

GUITAR 2 CONT'D
eb---------------------------|
Bb---------------------------|
Gb-14h16p13~-12~~~~~~~~~~~~~~
Db---------------------------|
Ab---------------------------|
Eb---------------------------|

VERSE (guitar 1):
eb-----------------------------------|
Bb-----------------------------------|
Gb--555--5555-5555--7777--7777-7777--|
Db--555--5555-5555--7777--7777-7777--| x4
Ab--333--3333-3333--5555--5555-5555--|
Eb-----------------------------------|

VERSE (guitar 2; come in after guitar 1 has played twice)
eb-12-12-10~~~~/7--|
Bb-----------------|
Gb-----------------|
Db-----------------| x2
Ab-----------------|
Eb-----------------|

PRE-CHORUS: play the very first intro again

CHORUS (guitar 1)
eb--------------------------------------|
Bb--------------------------------------|
Gb--------------------55555555----------|
Db--66666666-55555555-55555555-77777777-|
Ab--66666666-55555555-33333333-77777777-|
Eb--44444444-33333333----------55555555-|

CHORUS (guitar 2):
eb---------------------------------------|
Bb---------------------------------------|
Gb-13~~~~~~~-12~~~~~~~~~~~~~~~-9~~~~~~~~-|
Db---------------------------------------|
Ab---------------------------------------|
Eb---------------------------------------|

CHORUS CONT'D (guitar 1)
eb----------------------------|
Bb----------------------------|
Gb----------------------------|
Db--66666666-5555555555555555-|
Ab--66666666-5555555555555555-|
Eb--44444444-3333333333333333-|

CHORUS CONT'D (guitar 2)
eb---------------------------
Bb-13~~~~~~~-12~~~~~~~~~~~~~~
Gb---------------------------|
Db---------------------------|
Ab---------------------------|
Eb---------------------------|

Play the whole verse again.

Play the first intro again for the pre-chorus.

CHORUS 2 (guitar 1)
eb--------------------------------------|
Bb--------------------------------------|
Gb--------------------55555555----------|
Db--66666666-55555555-55555555-77777777-|
Ab--66666666-55555555-33333333-77777777-|
Eb--44444444-33333333----------55555555-|

CHORUS 2 (guitar 2)
eb-----------------------------------------|
Bb-----------------------------------------|
Gb-13~~~~~~~-12~~~~~~~-17~~~~~~~-16~~~~~~~-|
Db-----------------------------------------|
Ab-----------------------------------------|
Eb-----------------------------------------|

CHORUS 2 CONT'D (guitar 1)
eb---------------------------|
Bb---------------------------|
Gb---------------------------|
Db--66666666-55555555--------|
Ab--66666666-55555555--------|
Eb--44444444-33333333--------|

CHORUS 2 CONT'D (guitar 2)
eb---------------------------|
Bb---------------------------|
Gb-14h16p13~~-12~~~~~~~~~~~~~
Db---------------------------|
Ab---------------------------|
Eb---------------------------|

BRIDGE (both guitars)
eb---------------------|
Bb---------------------|
Gb------555--777-------|
Db-666--555--777--777--| x4
Ab-666--333--555--777--|
Eb-444------------555--|

BRIDGE 2 ("Murder! Innocent life!) (both guitars):
eb-----------------------------------------------------------------|
Bb-----------------------------------------------------------------|
Gb-555-555-555-555---------------------------------555-555-555-555-|
Db-555-555-555-555-777-777-777-777-222-222-222-222-555-555-555-555-|
Ab-333-333-333-333-777-777-777-777-222-222-222-222-333-333-333-333-|
Eb-----------------555-555-555-555-000-000-000-000-----------------|

LAST CHORUS (guitar 1; not too sure on this)
eb--------------------------------------|
Bb--------------------------------------|
Gb--------------------------------------|
Db--55555555-22222222-66666666-55555555-|
Ab--55555555-22222222-66666666-55555555-|
Eb--33333333-00000000-44444444-33333333-|

LAST CHORUS (guitar 2)
eb--------------------------------------------|
Bb--------------------------------------------|
Gb-12~~~~~~~-9~~~~~~~14h16p13~~--16-13~~~~~~~-|
Db--------------------------------------------|
Ab--------------------------------------------|
Eb--------------------------------------------|

Agter that play the first intro, about the same time another guitar plays this:

eb--------------------------------------------------------------------|
Bb--------------------------------------------------------------------|
Gb--12~~~~~~~-9~~~~~~~13~~~~~~~-12~~~~~~~17~~~~~~~-16~~~~-19~~-21~~~~-|
Db--------------------------------------------------------------------|
Ab--------------------------------------------------------------------|
Eb--------------------------------------------------------------------|
Meet My Maker

Intro:

|------------------------------------------|
|------------------------------------------|
|--------------------4---------------------|
|--6---5---4---2---6-4-5---4---2-2-2-2-2-2-|
|--6---5---4---2---6-2-5---4---2-2-2-2-2-2-|
|--4---3---2---0---4---3---2---0-0-0-0-0-0-|

Verse:

|----------------------------------------------------------------------|
|----------------------------------------------------------------------|
|----------------------------------------------------------------------|
|----------------------------------------------------------------------|
|------2-----2---2-----2-----2---2-----2-----2---2-----2-----2---2-----|
|--4-4---4-4---4---0-0---0-0---0---2-2---2-2---2---0-0---0-0---0-------|

PreChorus:

|----------------------------------------|
|----------------------------------------|
|----------------------------------------|
|--6---5---4---2---6---5---4---2-2-2-2-2-|
|--6---5---4---2---6---5---4---2-2-2-2-2-|
|--4---3---2---0---4---3---2---0-0-0-0-0-|

Chorus:

|---------------------------------|
|---------------------------------|
|------4---------------4----------|
|--6---4---2---4---6---4---2---4--| (x2)
|--6---2---2---4---6---2---2---4--|
|--4-------0---2---4-------0---2--|

Post Chorus (thats how I call it)

|---------------------------------------------|
|--0---0-2-------0---0-2-------0---0-2-0------|
|----3-------------3-------------3-------3-1--|
|---------------------------------------------|
|---------------------------------------------|
|---------------------------------------------|

Verse:

|----------------------------------------------------------------------|
|----------------------------------------------------------------------|
|----------------------------------------------------------------------|
|----------------------------------------------------------------------|
|------2-----2---2-----2-----2---2-----2-----2---2-----2-----2---2-----|
|--4-4---4-4---4---0-0---0-0---0---2-2---2-2---2---0-0---0-0---0-------|

PreChorus:

|----------------------------------------|
|----------------------------------------|
|----------------------------------------|
|--6---5---4---2---6---5---4---2-2-2-2-2-|
|--6---5---4---2---6---5---4---2-2-2-2-2-|
|--4---3---2---0---4---3---2---0-0-0-0-0-|

Chorus:

|---------------------------------|
|---------------------------------|
|------4---------------4----------|
|--6---4---2---4---6---4---2---4--| (x2)
|--6---2---2---4---6---2---2---4--|
|--4-------0---2---4-------0---2--|

Bridge:

|-------------------------|
|-------------------------|
|-------------------------|
|--6----2---6----2---6----|
|--6-.--2---6-.--2---6-.--|
|--4----0---4----0---4----|

Bridge part 2 (just like the intro)

|------------------------------------------|
|------------------------------------------|
|--------------------4---------------------|
|--6---5---4---2---6-4-5---4---2-2-2-2-2-2-|
|--6---5---4---2---6-2-5---4---2-2-2-2-2-2-|
|--4---3---2---0---4---3---2---0-0-0-0-0-0-|

Chorus:

|---------------------------------|
|---------------------------------|
|------4---------------4----------|
|--6---4---2---4---6---4---2---4--| (x4)
|--6---2---2---4---6---2---2---4--|
|--4-------0---2---4-------0---2--|

Outro

|--------------------------------|
|--------------------------------|
|--------------------------------|
|--6----2---6----2---6----2--6---|
|--6-.--2---6-.--2---6-.--2--6---|
|--4----0---4----0---4----0--4---|
Suggest correction
What's this?
You can suggest a correction to this tab. Community and Mods will review your correction and vote to approve or reject it.
comments
We did not receive enough feedback on this tab! Please rate:
print report bad tab
1 2 3 4 5
1 comment total.
0 reply
ritalinkid 141 wrote on October 13 2007, 07:32 pm

Not too bad...could be way better...Secrets sounds off...I like Ghost of you though! :D

guest
You may want to rate the tab now too:
select rating
Please do not post tabs as comments. Select "correction" instead!