Oops, an error
Loading. Please wait.

The Click tab

version 1
version 1

Whole song

Interactive

944 views 1 this week
3 commentsread comments
1 2 3 4 5
x 8
add to favorites
×
Save as Personal and add changes to this tab that will be seen only by you. Learn more ›
×
You can save this tab as Personal to edit and correct it or add notes. All changes will be seen only by you. Learn more »
launch autoscroll
font size
0
reset
how to read this tab
guitar tuner
edit
Autoscroll
slow
fast
+/-
esc
set tempo
stop
guitar 1
G|-5-----------------------------------------
D|-5-------5-------3-------------------------
A|-3-------5-------3-------------------------
E|---------3-------1-------------------------

guitar 2 (same time)
D|-0-2-4-2-0-2-4-2-0-2-4-2-4-5-4-2-0-2-4-2-0-

Verse
guitar 1
e|------------------------------------------
B|------------------------------------------
G|-55555555---------------------------------
D|-55555555555555553333333333333333---------
A|-33333333555555553333333333333333---------
E|---------333333331111111111111111---------

Chorus
e|-------------------------------------------
B|-------------------------------------------
G|-77777777----------------------------------
D|-77777777777777779999999955555555----------
A|-55555555777777779999999955555555----------
E|---------555555557777777733333333----------

every other part in the song uses those riffs, just put palm muting wherever its needed

if u want any other good charlotte songs just email me Sid_rancid@hotmail.com

            
            
Suggest correction
Creating personal tab
Creating personal tab
You can edit any tab online and save it as your Personal.

You can edit, replace or remove any tab part or add personal notes – all changes will be seen only by you.

Personal tabs can be accessed anytime from any device, even offline.
Learn more »
comments
print report bad tab
3 comments total.
0 reply
VickyMR313 10 Dec 14, 2002 07:00 PM

The only thing that seems wrong is the verse and the intro chords, i think the verse is more like the chorus, but it could be just me.
I think the intro is
e|-------------------------
B|-------------------------
G|-7-----------------------
D|-7-------7-------5-------
A|-5-------7-------5-------
E|---------5-------3-------

0 reply
blink182nfgfan 10 Feb 18, 2003 07:00 PM

guitar1
G-5-----------------------------------
D-5--5--5-----------------------------
A-7--5--5-----------------------------
E----7--3-----------------------------x2

guitar 2{same time}
D-5-7-9-7-5-7-9-7-5-7-9-7-9-10-9-7-x2

0 reply
blink182nfgfan 10 Feb 18, 2003 07:00 PM

guitar1
G-5-----------------------------------
D-5--5--5-----------------------------
A-7--5--5-----------------------------
E----7--3-----------------------------x2

guitar 2{same time}
D-5-7-9-7-5-7-9-7-5-7-9-7-9-10-9-7-5-7-9-7-5-7-9-7-5 x2

my other correction was wrong so just forget about it.and dont forget to wobble the 5 at the end

guest
Wanna post a correction for this tab? Suggest correction