Oops, an error
Loading. Please wait.

The Click tab

version 4
version 4

Whole song

Interactive

1,541 views 1 this week
no commentswrite comment
1 2 3 4 5
2 more votes to show rating
add to favorites
×
Save as Personal and add changes to this tab that will be seen only by you. Learn more ›
×
You can save this tab as Personal to edit and correct it or add notes. All changes will be seen only by you. Learn more »
launch autoscroll
font size
0
reset
how to read this tab
guitar tuner
edit
Autoscroll
slow
fast
+/-
esc
set tempo
stop
Good Charlotte - Undergrads
By:Andrew Mchsan(Guitarguyx182@aol.com)

Intro
Guitar 1
e|---------------------------------------------------------------------------|
B|---------------------------------------------------------------------------|
G|---------------------------------------------------------------------------|
D|---------------------------------------------------------------------------|
A|-5-7-9-7-5-7-9-7-5-7-9-7-9-10-9-7-5-7-9-7-5-7-9-7-5------------------------|
E|---------------------------------------------------------------------------|
Guitar 2
e|---------------------------------------------------------------------------|
B|---------------------------------------------------------------------------|
G|-7--------------------------------7----------------------------------------|
D|-7-------7-------5----------------7-------7------5-------------------------|
A|-5-------7-------5----------------5-------7------5-------------------------|
E|---------5-------3------------------------5------3-------------------------|
Verse
Guitar 1
e|---------------------------------------------------------------------------|
B|---------------------------------------------------------------------------|
G|-7-7-7-7--------------------7--7-------------------------------------------|
D|-7-7-7-7--7-7-7-7--5-5-5-5--7--7-7--7--5--5--------------------------------|
A|-5-5-5-5--7-7-7-7--5-5-5-5--5--5-7--7--5--5--------------------------------|
E|----------5-5-5-5--3-3-3-3-------5--5--3--3--------------------------------|
Palm Mute...................
Guitar 2
e|---------------------------------------------------------------------------|
B|---------------------------------------------------------------------------|
G|---------------------------------------------------------------------------|
D|---------------------------------------------------------------------------|
A|-5-5-7-9-9-7-5-5-7-9-9-7-5-5-7-9-9-7-9-9-10-10-7-5-5-7-9-10-9-7-5----------|
E|---------------------------------------------------------------------------|
Chorus
e|---------------------------------------------------------------------------|
B|---------------------------------------------------------------------------|
G|-7-7-----4-4--------7------------------------------------------------------|
D|-7-7-7-7-4-4--5-5---7--7-5-------------------------------------------------|
A|-5-5-7-7-2-2--5-5---5--7-5-------------------------------------------------|
E|-----5-5------3-3------5-3-------------------------------------------------|

Intro 

Verse 2
e|---------------------------------------------------------------------------|
B|---------------------------------------------------------------------------|
G|-7-7-----4-4--------7------------------------------------------------------|
D|-7-7-7-7-4-4--5-5---7--7-5-------------------------------------------------|
A|-5-5-7-7-2-2--5-5---5--7-5-------------------------------------------------|
E|-----5-5------3-3------5-3-------------------------------------------------|
Palm Mute..........

Bridge
e|---------------------------------------------------------------------------|
B|---------------------------------------------------------------------------|
G|--7-7----------------------------------------------------------------------|
D|--7-7-7-7--5-5-------------------------------------------------------------|
A|--5-5-7-7--5-5-------------------------------------------------------------|
E|------5-5--3-3-------------------------------------------------------------|

Chorus 

Intro

Just because I walk
Like Obi-Wan Kenobi
You people talk
But you don't even know me
And that's all right
'Cause I get down with GC
So I walk on and
Listen to their CD
Some people laugh
They do it just to spite me
Behind my back
They don't know what I see
But I don't care what they say
I don't need them anyway
I'll just go about my day
But anyway

You go out on Friday night
I'll stay in but that's all right
'Cause I have found a clique
To call my own in-crowd
Out-crowd
I don't care your crowd
My crowd
We can't share
'Cause I have found
A clique to call my own
(Let's go)

So come and talk to me
On my computer screen
The best years of our lives
Aren't as easy as they seem
But when they will look back
And then we'll have to laugh
They used to call us names
Now they want our autographs
To get the girl and make the grade
It's all a show
It's all a game
And I would lose it if I played
It's all the same

So I don't care what they say
I don't need them anyway
I'll just go about my day
But anyway

You go out on Friday night
I'll stay in but that's all right
'Cause I have found a clique
To call my own in-crowd
Out-crowd
I don't care your crowd
My crowd
We can't share
'Cause I have found a
Clique to call my own

She says she'd call
But I know she won't
(She won't)
(She won't)

You go out on Friday night
I'll stay in but that's all right
'Cause I have found a clique
To call my own in-crowd
Out-crowd
I don't care your crowd
My crowd
We can't share
'Cause I have found a
Clique to call my own

I don't care what you say
I don't need you anyway
I'll just go about my day
But anyway

I don't care what you say
I don't need you anyway
I'll just go about my day
But anyway

            
            
Suggest correction
Creating personal tab
Creating personal tab
You can edit any tab online and save it as your Personal.

You can edit, replace or remove any tab part or add personal notes – all changes will be seen only by you.

Personal tabs can be accessed anytime from any device, even offline.
Learn more »
Give kudos to tab author, rate the tab!
1 2 3 4 5
comments
print report bad tab
guest
You may want to rate the tab now too:
select rating
Wanna post a correction for this tab? Suggest correction