Oops, an error
Loading. Please wait.

The Day That I Die tab

version 2
version 2

Whole song

Interactive

107 views 3 this week
no commentswrite comment
1 2 3 4 5
3 more votes to show rating
add to favorites
×
Save as Personal and add changes to this tab that will be seen only by you. Learn more ›
×
You can save this tab as Personal to edit and correct it or add notes. All changes will be seen only by you. Learn more »
launch autoscroll
font size
0
reset
how to read this tab
guitar tuner
edit
Autoscroll
slow
fast
+/-
esc
set tempo
stop
Artist: Good Charlotte
Song;  The Day That I Die
Album: The Young And The Hopeless
Transcribed by: SolidusArmor

Tuning: 1/2 Down  Eb Ab Db Gb Bb eb


Song Duration 2;58

               
                                        Intro Riff 
                                                   
eb|------------------|-----------------------|--------------------------------------------------|
Bb|------------------|-----------------------|------------------------------------------3--2----|
Gb|------------------|-----------------------|----------------------2-------2-------2------2----|
Db|------------------|-----------------------|------------------2h4----2h4-----2h4---------2----|
Ab|1/4--5--4-4--2----|---3/5--4--0-----------|-1/4--5--4-4--2-----------------------------------|
Eb|------------------|----------------2---0--|--------------------------------------------------|


 
Strumming Pattern D D D U D D 



One day I woke up
I woke up knowing
Today is the day I will die
Ca$hdogg was barking
Went to the park
And enjoyed it one last time



     A         E       D         
eb|--0---------0-------2---|   
Bb|--2---------0-------3---|    
Gb|--2---------1-------2---| X2   
Db|--2---------2-------0---|    
Ab|--0---------2-----------|   
Eb|------------0-----------|    




I called my mother
Told her I loved her
And I begged her not to cry

        C#     D          
   eb|---------3----|   
   Bb|--6------3----|   
   Gb|--6------2----| Strum each chord twice
   Db|--6------0----|   
   Ab|--4-----------|   
   Eb|--------------|   





I wrote a letter
I said I'd miss her
And I signed that good bye


     A         E       D         
eb|--0---------0-------2---|   
Bb|--2---------0-------3---|    
Gb|--2---------1-------2---|X1     
Db|--2---------2-------0---|    
Ab|--0---------2-----------|   
Eb|------------0-----------|    




You know the happiest day of my life
I swear the happiest day of my life
Is the day that I die



     B      A
eb|---------0---|
Bb|--4------2---|
Gb|--4------2---|X2
Db|--4------2---|
Ab|--2------0---|
Eb|-------------|


            
Can you feel the cold tonight? (the day that I died)
It sets in, but it's alright (the day that I died)
Darkness falls, I'm letting go (the day that I died)
All alone, but I feel fine (the day that I died)

                      A     E    D
                eb|---0-----0----2----|
                Bb|---2-----0----3----|
                Gb|---2-----1----2----|X4
                Db|---2-----2----0----|
                Ab|---0-----2---------|
                Eb|---------0---------|




We took a drive and
We drove through DC
To see the places we lived
Long conversations
We talked of old friends
And all the things that we did

                                       
     A         E       D         
eb|--0---------0-------2---|   
Bb|--2---------0-------3---|    
Gb|--2---------1-------2---|X3   
Db|--2---------2-------0---|    
Ab|--0---------2-----------|   
Eb|------------0-----------|    


                           
                            
The summer nights
Drunken fights
Mistakes we made
Did we live it right?
 
         C#     D          
    eb|---------3----|   
    Bb|--6------3----|   
    Gb|--6------2----|X3 
    Db|--6------0----|   
    Ab|--4-----------|   
    Eb|--------------|   



You know the happiest day of my life
I swear the happiest day of my life
Is the day that I died


     B      A
eb|---------0---|
Bb|--4------2---|
Gb|--4------2---|Strum each chord twice
Db|--4------2---|
Ab|--2------0---|
Eb|-------------|



                
Can you feel the cold tonight? (the day that I died)
It sets in, but it's alright (the day that I died)
Darkness falls, I'm letting go (the day that I died)
All alone but I feel just fine

             

                      A     E    D
                eb|---0-----0----2----|
                Bb|---2-----0----3----|
                Gb|---2-----1----2----|X4
                Db|---2-----2----0----|
                Ab|---0-----2---------|
                Eb|---------0---------|



                                     Solo
eb|--------------------------------------------------------------------------------------------------|
Bb|--------------------------------------------------------------------------------------------------|
Gb|----------------2--------2---------2--------------------------------------------------------------|
Db|------------2h4-----2h4-------2h4-----------------------------------------------------------------|
Ab|1/4-5-4-----------------------------------------2/4--2/4--2/4----4-5-4-2----5---4--0--------------|
Eb|---------------------------------------2--0--------------------------------------------2---1------|



You know the happiest day of my life,
I know the happiest day of my life
I swear the happiest day of my life
Is the day that I die

                                       
  
     B      A
eb|---------0---|
Bb|--4------2---|
Gb|--4------2---|Strum each chord Three Times
Db|--4------2---|
Ab|--2------0---|
Eb|-------------|



    
                  Can you feel the cold tonight? (the day that I died)
It sets, but it's alright (the day that I died)
Darkness falls, I'm letting go (the day that I died)
All alone, but I feel fine

              

Did I live it right?
I hope I lived it right
(day that i die)
Did I live it right?
(day that i die)
Did I live it right?
I hope I lived it right
(day that i die)
I know I lived it right

                      A     E    D
                eb|---0-----0----2----|
                Bb|---2-----0----3----|
                Gb|---2-----1----2----|x7    
                Db|---2-----2----0----|
                Ab|---0-----2---------|
                Eb|---------0---------|


                              
                                [bark]
                                   Good boy.




One day I woke up
I woke up knowing
Today is the day I will die
Ca$hdogg was barking
Went to the park
And enjoyed it one last time
I called my mother
Told her I loved her
And I begged her not to cry
I wrote a letter
I said I'd miss her
And I signed that good bye

You know the happiest day of my life
I swear the happiest day of my life
Is the day that I die

Can you feel the cold tonight? (the day that I died)
It sets in, but it's alright (the day that I died)
Darkness falls, I'm letting go (the day that I died)
All alone, but I feel fine (the day that I died)

We took a drive and
We drove through DC
To see the places we lived
Long conversations
We talked of old friends
And all the things that we did
The summer nights
Drunken fights
Mistakes we made
Did we live it right?

You know the happiest day of my life
I swear the happiest day of my life
Is the day that I died

Can you feel the cold tonight? (the day that I died)
It sets in, but it's alright (the day that I died)
Darkness falls, I'm letting go (the day that I died)
All alone but I feel just fine

You know the happiest day of my life,
I know the happiest day of my life
I swear the happiest day of my life
Is the day that I die

Can you feel the cold tonight? (the day that I died)
It sets, but it's alright (the day that I died)
Darkness falls, I'm letting go (the day that I died)
All alone, but I feel fine

Did I live it right?
I hope I lived it right
(day that i die)
Did I live it right?
(day that i die)
Did I live it right?
I hope I lived it right
(day that i die)
I know I lived it right

[bark]
Good boy.





************************************

| /   slide up
| \   slide down
| h   hammer-on
| p   pull-off
| ~   vibrato
| +   harmonic
| x   Mute note
| b   Bend
| pb  Pre-bend
| br  Bend release
| pbr Pre-bend release
| brb Bend release bend

************************************

            
            
Suggest correction
Creating personal tab
Creating personal tab
You can edit any tab online and save it as your Personal.

You can edit, replace or remove any tab part or add personal notes – all changes will be seen only by you.

Personal tabs can be accessed anytime from any device, even offline.
Learn more »
Give kudos to tab author, rate the tab!
1 2 3 4 5
comments
print report bad tab
guest
You may want to rate the tab now too:
select rating
Wanna post a correction for this tab? Suggest correction