Oops, an error
Loading. Please wait.

The Young And The Hopeless Bass

version 2
version 2

Whole song

Interactive

3,579 views 3 this week
1 commentread comment
1 2 3 4 5
x 7
add to favorites
×
Save as Personal and add changes to this tab that will be seen only by you. Learn more ›
×
You can save this tab as Personal to edit and correct it or add notes. All changes will be seen only by you. Learn more »
save as personal
new!
launch autoscroll
font size
0
reset
guitar tuner
Autoscroll
slow
fast
+/-
esc
set tempo
stop
Author
Song: Young & Hopeless
Artist: Good Charlotte
Album: the young and the hopeless

tabbed by : kian
e-mail: anarcic@hotmail.com

Standard tuning

Intro - guitar only

Verse 1 - part 1 guitar only 
        - part 2 Bass and drums comes in  
G|--------------------------------------|
D|--------------------------------------|
A|-66666666-33333333--------------------|
E|-------------------44444444-44444444--|
   Take...    say...     won't...   know...

Pre-chorus
G|-----------------------------------------------3333-1111-0000----------|
D|-------------5-3-1-0----------------3333--1111-------------------------|
A|333333333333--------------1111-3333---------------------------11111111-|
E|---------------------4444----------------------------------------------|x2

Chorus
G|----------------------------------------------------| end on|----------|
D|----------------------------------------------------|       |----------|
A|-6--6—-666-6---3--3--333-3--------------------------|       |-66666666-|
E|-----------------------------4--4--444-4---66666666-|x2     |----------|

Verse 2                                      
G|--------------------------------------|
D|--------------------------------------|
A|-66666666-33333333--------------------|
E|-------------------44444444-44444444--|x2

Repeat pre-chorus & chorus

Bridge 
part 1 - rythm guitar only 
part 2 - lead guitar and bass enters
G|----------------------------------------------|
D|----------------------------------------------|
A|--3~---2~---6~---3~---2~---66666666-66666666--|
E|----------------------------------------------|

G|--------------------------------------|
D|--------------------------------------|
A|--33333333-22222222-66666666-66666666-|
E|--------------------------------------|X2

Then repeat chorus

After the last chorus
G|--------------------------------------|
D|--------------------------------------|
A|--33333333-22222222-66666666-66666666-|
E|--------------------------------------|x2

G|-------------------|
D|-------------------|
A|--3~---2~---6~-----|
E|-------------------|
Suggest correction
comments
print report bad tab
1 comment total.
0 reply
joeya2 10 Jun 18, 2013 01:22 PM

Perfect just he plays a 5 string bass, but doesn't use the 5th string in this song at all, I just think it would look cool if you tabbed it for 5 string

guest
You may want to rate the tab now too:
select rating
Wanna post a correction for this tab? Suggest correction