Oops, an error
Loading. Please wait.

The Young And The Hopeless bass

version 3
version 3

Whole song

Interactive

1,613 views 1 this week
no commentswrite comment
1 2 3 4 5
3 more votes to show rating
add to favorites
×
Save as Personal and add changes to this tab that will be seen only by you. Learn more ›
×
You can save this tab as Personal to edit and correct it or add notes. All changes will be seen only by you. Learn more »
launch autoscroll
font size
0
reset
guitar tuner
edit
Autoscroll
slow
fast
+/-
esc
set tempo
stop
Author
Difficulty
----------------------------------------------------------------------------
                 good charlotte-the young and the hopeless
----------------------------------------------------------------------------
tabbed by:nathan mistickokat
e-mail:punk_metal24

tuning:half step

the bass doesnt cut in untill the verse

verse(2x)palm muted
|----------------------------------------------------------------------------|
|----------------------------------------------------------------------------|
|--------------------------------4-4-4-4-4-4-4-4-4-4-4-4-4-4-4-4-------------|
|0-0-0-0-0-0-0-0-0-0-0-0-0-0-0-0---------------------------------5-5-5-5-5-5-|

|---------------------------------------------------|
|---------------------------------------------------|
|---------------------------------------------------|
|5-5-5-5-5-5-5-5-5-5-5-5-5-5-5-5-5-5-5-5-5-5-5-5-5-5|


pre-chorus(2x)
|----------------------------------------------------------------------------|
|----------------------------------------------------------------------------|
|------------------------9-7-6---------------------------------------5-5-5-5-|
|7-7-7-7-7-7-7-7-7-7-7-7-------7-3-3-3-3-5-5-5-5-7-7-7-7-10-10-10-10---------|

|---------------------------------------------------------|
|7-7-7-7-5-5-5-5-4----------------------------------------|
|------------------7-5-4----------------------------------|
|------------------------5-5-5-5-5-5-5-5-5-5-5-5-5-5-5-5--|


chrous(2x)
|------------------------------------------------------------------|
|------------------------------------------------------------------|
|------------------4-4-4-4-4-4-4-4---------------------------------|
|0-0-0-0-0-0-0-0-0-----------------5-5-5-5-5-5-5-5-7-7-7-7-7-7-7-7-|

bridge(i dont care!)
|---------------------------------|
|---------------------------------|
|-0-0-0-0-0-0-0-0-0-0-0-0-0-0-0-0-|
|---------------------------------|

verse

chorus

bridge 2 palm muted
|----------------------------------------------------------------|
|----------------------------------------------------------------|
|4-4-4-4-4-4-4-4-3-3-3-3-3-3-3-3---------------------------------|(2x)
|--------------------------------0-0-0-0-0-0-0-0-0-0-0-0-0-0-0-0-|

|--------------------------------|
|--------------------------------|
|4-4-4-4-4-4-4-4-3-3-3-3-3-3-3-3-|
|--------------------------------|

interlude
|--------------------------------|
|--------------------------------|
|--------------------------------|
|0-0-0-0-0-0-0-0-0-0-0-0-0-0-0-0-|

|----------------------------------------------------------------|
|----------------------------------------------------------------|
|4-4-4-4-4-4-4-4-3-3-3-3-3-3-3-3---------------------------------|(2x)
|--------------------------------0-0-0-0-0-0-0-0-0-0-0-0-0-0-0-0-|

|----------------------------------------------------------------|
|----------------------------------------------------------------|
|4-4-4-4-4-4-4-4-3-3-3-3-3-3-3-3-2-2-2-2-2-2-2-2-2-2-2-2-2-2-2-2-|
|----------------------------------------------------------------|

chorus(2x)

outro
|----------------------------------------------------------------|
|----------------------------------------------------------------|
|0-0-0-0-0-0-0-0-0-0-0-0-0-0-0-0---------------------------------|
|--------------------------------0-0-0-0-0-0-0-0-0-0-0-0-0-0-0-0-|

|----------------------------------------------------------------|
|----------------------------------------------------------------|
|0~------------0~------------------------------------------------|
|--------------------------------0~------------------------------|

so thats it for the song,just remember all the good charlotte albums from
the young and the hopeless to chronicles of life and death are all half step
i dont know about the new one coming out,but this is a good tab,so have fun.

            
            
Suggest correction
Creating personal tab
Creating personal tab
You can edit any tab online and save it as your Personal.

You can edit, replace or remove any tab part or add personal notes – all changes will be seen only by you.

Personal tabs can be accessed anytime from any device, even offline.
Learn more »
Give kudos to tab author, rate the tab!
1 2 3 4 5
comments
print report bad tab
guest
You may want to rate the tab now too:
select rating
Wanna post a correction for this tab? Suggest correction