Oops, an error
Loading. Please wait.

Truth Tab

version 1
version 1

Whole song

6,264 views 1 this week
4 commentsread comments
1 2 3 4 5
excellent!
x 6
add to favorites
launch autoscroll
font size
0
reset
how to read this tab
guitar tuner
Autoscroll
slow
fast
+/-
esc
set tempo
stop
Help us to improve Ultimate-Guitar.com Take our survey!
×
Contributor
Difficulty
ror 257
intermediate
Tuning Half step down

First Part Is the piano part transcribed for Guitar

*INTRO*

(Finger Picking)
    G    C    G         C
Eb|--------------------------------------------------|
Bb|-3---------3--------------------------------------|
Gb|-0----0----0---------0----------------------------|
Db|------2---------4----2----------------------------|
Ab|------3--------------3----------------------------|
Eb|-3---------3--------------------------------------|
                            So Here We Are


**VERSE**

    G        Cadd9                G       C
Eb|------------------------------------------------------|
Bb|-3--------3--------------------3----------------------|
Gb|-0--------0--------------------0-------0--------------|
Db|-0--------2------------------------4---2--------------|
Ab|----------3----------------------------3--------------|
Eb|-3-----------------------------3----------------------|
                 We Are Alone               Theres weight on your mind
          
                 

    G        Cadd9                G       C
Eb|------------------------------------------------------|
Bb|-3--------3--------------------3----------------------|
Gb|-0--------0--------------------0-------0--------------|
Db|-0--------2------------------------4---2--------------|
Ab|----------3----------------------------3--------------|
Eb|-3-----------------------------3----------------------|
               And I Want To Know              The...


    Am                                   C
Eb|------------------------------------------------------|
Bb|-1----------------------------------------------------|
Gb|-2------------------------------------0---------------|
Db|-2------------------------------------2---------------|
Ab|-0---0---0---0------------------------3---3---3---3---|
Eb|------------------------------------------------------|

   Truth, If This Is How You Feel          Say it to me



    Am
Eb|------------------------------------------------------|
Bb|-1----------------------------------------------------|
Gb|-2----------------------------------------------------|
Db|-2----------------------------------------------------|
Ab|-0---0---0---0----------------------------------------|
Eb|------------------------------------------------------|
        If This Was Ever Real



D    -x5423x
G    -320033
D/F# -2x02xx
Em7  -022033
Cadd9-x32033
Em   -022000
Bm   -024430
C    -x30210
Dsus4-x552xx


**CHORUS**
  D                    G   D/F#       Em7                    
      I Want The Truth           From You   Give Me The Truth



Cadd9               D                      
Even If It Hurts    Me    




                G   D/F#       Em7                    
I Want The Truth           From You   Give Me The Truth


Cadd9               D                      
Even If It Hurts    Me  

                   G        Cadd9                G       C
I Want The Truth                 So This Is You          Your talking to me




**VERSE**

G     Cadd9               G              C
            You found a million ways to let me down 


      G                    Cadd9                    G      C            Am
So im not Hurt When You're not   Around i was blind           But now i see

                    C                        Am                         D
This is how you feel  Just Say It to me  If this was ever real

**CHORUS**


**BRIDGE**

Em                          Bm                                C
I know that this will break me I know that this might make me cry

                       D       
You gotta say whats on your mind   On your mind

Em                         Bm                              C
I know that this will hurt me and break my heart and soul inside

                    Dsus4      
I dont want to live this lie  


**CHORUS**  

**OUTRO**

    G      Cadd9  G      F#        C  
Eb|---------------------------------------------|
Bb|-3------3------3-----------------------------|
Gb|-0------0------0-----------------0-----------|
Db|-0------2-------------4----------2-----------|
Ab|--------3------------------------3-----------|
Eb|-3-------------3------2----------------------|



Thanks
Comments Rory_rt777q@hotmail.com
Suggest correction new What's this?
You can suggest a correction to this tab. Community and Mods will review your correction and vote to approve or reject it.
comments
print report bad tab
4 comments total. Showing first comments.
0 reply
xDeathwishx 100 wrote on May 14 2007, 06:40 pm

Not bad.

0 reply
nicke_tallboda 103 wrote on February 2 2009, 02:44 pm

this tab is very good!!

0 reply
Du.. 62 wrote on August 27 2009, 09:58 am

this tab is PERFECT!!!!

guest
You may want to rate the tab now too:
select rating
Please do not post tabs as comments. Select "correction" instead!