Oops, an error
Loading. Please wait.

Truth Tab

version 2
version 2

Whole song

646 views 1 this week
no commentswrite comment
1 2 3 4 5
please rate
add to favorites
launch autoscroll
font size
0
reset
how to read this tab
guitar tuner
Tab Pro tools
  • play this tab
  • loop segment
  • change instrument
  • show fretboard
  • metronome
×
Best way to learn
"Truth"
Autoscroll
slow
fast
+/-
esc
set tempo
stop
Contributor
Difficulty
advanced
----------------------------------------------------------------------------
                            good charlotte-the truth
----------------------------------------------------------------------------

tuning:half step
tabbed by:nathan mistickokat
e-mail:punk_metal24



intro(play this for the verse also)
|-------------------------------------------------|
|3-------------------------------3----------------|
|0---------------0---------------0-------------0--|
|0---------------2---------------0------4------2--|
|x---------------3---------------x-------------3--|
|3-------------------------------3----------------|

pre-chorus
|0-----------------------0-----------2-----------|
|1-----------------------1-----------3-----------|
|2-----------0-----------2-----------2-----------|
|2-----------2-----------2-----------4-----------|
|0--0--0--0--3--3--3--3--0--0--0--0--5--5--5--5--|
|------------------------------------------------|


chorus
|-----------------------------------2--2-22-2-|
|----3-------3--3-3-33-3----3-------3--3-33-3-|
|0-0---0-0---0--0-0-00-0----0-------2--2-22-2-|
|0-0-----0---2--2-2-22-2----2-------4--4-44-4-|2x
|x-x-----x---2--2-2-22-2----3-------5--5-55-5-|
|3-3-----2---0--0-0-00-0----------------------|


verse repeat
|-------------------------------------------------|
|3-------------------------------3----------------|
|0---------------0---------------0-------------0--|
|0---------------2---------------0------4------2--|
|x---------------3---------------x-------------3--|
|3-------------------------------3----------------|


pre-chorus repeat
|0-----------------------0-----------2-----------|
|1-----------------------1-----------3-----------|
|2-----------0-----------2-----------2-----------|
|2-----------2-----------2-----------4-----------|
|0--0--0--0--3--3--3--3--0--0--0--0--5--5--5--5--|
|------------------------------------------------|

chorus repeat

bridge
|0--0--0--0--2--2--2--2--------------2--2--2--2--|
|0--0--0--0--3--3--3--3--3--3--3--3--3--3--3--3--|
|1--1--1--1--4--4--4--4--0--0--0--0--2--2--2--2--|
|2-----------4--4--4--4--2--2--2--2--4--4--4--4--|2x
|2-----------2--2--2--2--3--3--3--3--5--5--5--5--|
|0-----------------------------------------------|


chorus repeat 4x
|-----------------------------------2--2-22-2-|
|----3-------3--3-3-33-3----3-------3--3-33-3-|
|0-0---0-0---0--0-0-00-0----0-------2--2-22-2-|
|0-0-----0---2--2-2-22-2----2-------4--4-44-4-|
|x-x-----x---2--2-2-22-2----3-------5--5-55-5-|
|3-3-----2---0--0-0-00-0----------------------|

outro play once
|-------------------------------------------------|
|3-------------------------------3----------------|
|0---------------0---------------0-------------0--|
|0---------------2---------------0------4------2--|
|x---------------3---------------x-------------3--|
|3-------------------------------3----------------|


this is an easy song,and its a short tab,hahaha well thats what i got down,
this song is so depressing,its one of the saddest songs ever,when i first heard it
i didnt like it at all because it was too depresing.but have fun learning this song.
very good song.

comments
We did not receive enough feedback on this tab! Please rate:
print report bad tab
1 2 3 4 5
I want to post or [tab]
guest
You may want to rate the tab now too:
select rating
Please do not post tabs as comments. Select "correction" instead!