Oops, an error
Loading. Please wait.

Truth Tab

version 3
version 3

Whole song

370 views 1 this week
no commentswrite comment
1 2 3 4 5
please rate
add to favorites
launch autoscroll
font size
0
reset
how to read this tab
guitar tuner
Tab Pro tools
  • play this tab
  • loop segment
  • change instrument
  • show fretboard
  • metronome
Autoscroll
slow
fast
+/-
esc
set tempo
stop
Contributor
Difficulty
novice
-------------------------------------------------------------------------------
                             The truth - Good Charlotte
-------------------------------------------------------------------------------
Tabbed by: Yanesmeister
Email: ryf182@hotmail.com

Tuning:

 So here we are...         We are alone...
e|----------------------------------------------------|
B|-------------------3------------------------3-------|
G|-------------------0-0----------------------0---0---|
D|---------------------2------------------------4-2---|
A|-------------------2-3----------------------2---3---|
E|-------------------3------------------------3-------|

 There's weight on your mind...      I wanna know...
e|---------------------------------------------------------------|
B|------------------------------3------------------------3-------|
G|------------------------------0-0----------------------0---0---|
D|--------------------------------2------------------------4-2---|
A|------------------------------2-3----------------------2---3---|
E|------------------------------3------------------------3-------|
         
         
The truth (A-)
If this Is how you feel (C) 
say It to me (A-)
If this was ever real (D)

I want the truth, (G) from you (C)
give me the truth, (A-) even If It hurts me (D)
I want the truth, (G) from you (C)
give me the truth, (A-) even If It hurts me (D)

  I want the truth...     So this is you...
e|----------------------------------------------------|
B|-------------------3------------------------3-------|
G|-------------------0-0----------------------0---0---|
D|---------------------2------------------------4-2---|
A|-------------------2-3----------------------2---3---|
E|-------------------3------------------------3-------|

   You´re talking to me...   You've found a million ways to let me down...
e|----------------------------------------------------|
B|-------------------------3------------------3-------|
G|-------------------------0-0----------------0---0---|
D|-------------------------2-2------------------4-2---|
A|-------------------------2-3----------------2---3---|
E|-------------------------3------------------3-------|

   So I'm not hurt when you're not around, I was blind...
e|-------------------------------------------------------------------|
B|--------------3--------------------------------------------3-------|
G|--------------0-----------------0--------------------------0---0---|
D|--------------2-----------------2----------------------------4-2---|
A|--------------2-----------------3--------------------------2---3---|
E|--------------3--------------------------------------------3-------|


But now I see (A-) 
This Is how you feel (C) 
Say It to me (A-)
If this was ever real... (D)

I want the truth, (G) from you (C)
give me the truth, (A-) even If It hurts me (D)
I want the truth, (G) from you (C)
give me the truth, (A-) even If It hurts me (D)

(E-) I know that this will break me (A-)
I know that this might make me cry (C)
you gatta say what's on your mind (D)
on your mind¡
(E-) I know that this will hurt me (A-)
and break my heart and soul Inside (C)
I don't wanna live this life... (D)

I want the truth, (G) from you (C)
give me the truth, (A-) even If It hurts me (D)
I want the truth, (G) from you (C)
give me the truth, (A-) even If It hurts¡ (D)
I don´t care no more no¡¡¡

(G) Just give me the truth¡ (C)
Give me the truth¡ (A-)
Cause I don't care no more¡ 

(G) Give me the truth¡ (C)
(A-) Cause I don't care no more no¡¡¡
             ( x5 )

Hope you enjoy it... I think it sounds great¡¡¡
Hope you like it... Thanks a lot¡¡¡

                               A Guitar Is The Human Soul
                                           Speaking With Just Six Strings
comments
We did not receive enough feedback on this tab! Please rate:
print report bad tab
1 2 3 4 5
I want to post or [tab]
guest
You may want to rate the tab now too:
select rating
Please do not post tabs as comments. Select "correction" instead!