Oops, an error
Loading. Please wait.

Victims Of Love Bass Tab

version 1
version 1

Whole song

1,912 views 1 this week
1 commentread comment
1 2 3 4 5
3 more votes to show rating
add to favorites
launch autoscroll
font size
0
reset
guitar tuner
Autoscroll
slow
fast
+/-
esc
set tempo
stop
Help us to improve Ultimate-Guitar.com Take our survey!
×
Difficulty
intermediate
esta es una cancion del nuevo disco de gc gmr yo la saque en mi bajo

intro

-----------------------------------------|
-----------------------------------------|x2
0000000444444444--00000004444222222------|
-----------------------------------------|
verso1

------------------------------|
------------------------------|
------------------------------|
9--7--5--5----9--7--12--5-----|

verso2
----------------------------------------|
----------------------------------------|
----------------------------------------|
9-9-99-9-7-7-77-7-5-5-55-5-7-9-3-3-33-3-|

----------------------------------------|
----------------------------------------|
----------------------------------------|
9-9-99-9-7-7-77-7-12-12-1212-12-14------|

coro

----------------------------------------|
----------------------------------------|x2
----------------------------------------|
9999977777555555-999997777755555--------|

----------------------------------------|
----------------------------------------|x4
----------------------------------------|
9-77777-4-555555-777777-----------------|

verso1 y 2
coro x2
     x4
puente

----------------------------------------|
----------------------------------------|
----------------------------------------|
0000/12121212-0000/12121212-------------|

verso1

coro x4
Suggest correction
Give kudos to tab author, rate the tab!
1 2 3 4 5
comments
print report bad tab
1 comment total.
0 reply
fenderbassdude 76 Jun 23, 2007 10:05 AM

yeah its easier to tab in english ****in beaner

guest
You may want to rate the tab now too:
select rating
Wanna post a correction for this tab? Suggest correction