Oops, an error
Loading. Please wait.

Walk Away Tab

version 2
version 2

Whole song

Interactive

1,716 views 1 this week
1 commentread comment
1 2 3 4 5
excellent!
x 4
add to favorites
launch autoscroll
font size
0
reset
how to read this tab
guitar tuner
Autoscroll
slow
fast
+/-
esc
set tempo
stop
Help us to improve Ultimate-Guitar.com Take our survey!
×
Author
Band/artist: Good Charlotte
Album: The chronicles of life and death
Song: Walk away (track 3)
Year: 2004
Guitarists: Benji Madden + Billy Martin

~   =   Let ring

INTRO (Rhythm guitar):
e---------------------|
b---------------------|
g---------------------|
d--3-3--4-4--8-8--6-6-|
a--3-3--4-4--8-8--6-6-|
e--1-1--2-2--6-6--4-4-|

INTRO (Lead guitar)
e-----------|
b-----------|
g--10-8-6-6-|
d-----------|
a-----------|
e-----------|

INTRO PART 2 (Rhythm guitar):
e-----------------------------|
b-----------------------------|
g-----------------------------|
d--3-3-3--4-4-4--8-8-8--6-6-6-|
a--3-3-3--4-4-4--8-8-8--6-6-6-|
e--1-1-1--2-2-2--6-6-6--4-4-4-|

VERSE (Rhythm guitar):
e-------------------------------------------------------------------|
b-------------------------------------------------------------------|
g-------------------------------------------------------------------|
d--8-8-8-8-8-8-8-8-8-8-8-8-8-8-8-8--6-6-6-6-6-6-6-6-6-6-6-6-6-6-6-6-|
a--8-8-8-8-8-8-8-8-8-8-8-8-8-8-8-8--6-6-6-6-6-6-6-6-6-6-6-6-6-6-6-6-|
e--6-6-6-6-6-6-6-6-6-6-6-6-6-6-6-6--4-4-4-4-4-4-4-4-4-4-4-4-4-4-4-4-|
PM.................................................................

e-------------------------------------------------------------------|
b-------------------------------------------------------------------|
g-------------------------------------------------------------------|
d--4-4-4-4-4-4-4-4-4-4-4-4-4-4-4-4--8-8-8-8-8-8-8-8-8-8-8-8-8-8-8-8-|
a--4-4-4-4-4-4-4-4-4-4-4-4-4-4-4-4--8-8-8-8-8-8-8-8-8-8-8-8-8-8-8-8-|
e--2-2-2-2-2-2-2-2-2-2-2-2-2-2-2-2--6-6-6-6-6-6-6-6-6-6-6-6-6-6-6-6-|
PM.................................................................

VERSE (Lead guitar)
e----
b----
g--6- just keep playing this note
d----
a----
e----

VERSE PART 2 (Rhythm guitar):
e-----------------------------|
b-----------------------------|
g-----------------------------|
d--8~------6~------4~------8~-|
a--8~------6~------4~------8~-|
e--6~------4~------2~------6~-|

VERSE PART 2 (Lead guitar):
e------------------------------------|
b------------------------------------|
g--6-5-3~---5-6-1~---3-5------6-5-3~-|
d------------------------4~----------|
a------------------------------------|
e------------------------------------|

PRE-CHORUS (Both guitars):
e---------------------|
b---------------------|
g---------------------|
d--8-8--4-4--8-8--4-4-|
a--8-8--4-4--8-8--4-4-|
e--6-6--2-2--6-6--2-2-|

CHORUS (Both guitars, I think):
e-------------------------------------------------------------------|
b-------------------------------------------------------------------|
g--6-6-6-6-6-6-6-6-6-6-6-6-6-6-6-6----------------------------------|
d--6-6-6-6-6-6-6-6-6-6-6-6-6-6-6-6--4-4-4-4-4-4-4-4-4-4-4-4-4-4-4-4-|
a--4-4-4-4-4-4-4-4-4-4-4-4-4-4-4-4--4-4-4-4-4-4-4-4-4-4-4-4-4-4-4-4-|
e-----------------------------------2-2-2-2-2-2-2-2-2-2-2-2-2-2-2-2-|

e----------------------------------|
b----------------------------------|
g----------------------------------|
d--8-8-8-8-8-8-8-8-8-8-8-8-8-8-8-8-| It sounds like the lead fingerpicks in
a--8-8-8-8-8-8-8-8-8-8-8-8-8-8-8-8-| chorus, but I'm not too sure
e--6-6-6-6-6-6-6-6-6-6-6-6-6-6-6-6-|

Then play everything else again, but in the verse part 1 the rhythm guitar plays the 
a lot faster.

BREAK:
e----------|
b----------|
g----------|
d--4~---3~-|
a--4~---3~-|
e--2~---1~-|

BRIDGE (both guitars)
e-------------------------------------------------------------------|
b-------------------------------------------------------------------|
g-------------------------------------------------------------------|
d--4-4-4-4-4-4-4-4-4-4-4-4-4-4-4-4--3-3-3-3-3-3-3-3-3-3-3-3-3-3-3-3-|
a--4-4-4-4-4-4-4-4-4-4-4-4-4-4-4-4--3-3-3-3-3-3-3-3-3-3-3-3-3-3-3-3-|
e--2-2-2-2-2-2-2-2-2-2-2-2-2-2-2-2--1-1-1-1-1-1-1-1-1-1-1-1-1-1-1-1-|

e---------------------|
b---------------------|
g---------------------|
d--4--4--4~--3--3--3--| Play the bridge twice, but just this bit once.
a--4--4--4~--3--3--3~-|
e--2--2--2~--1--1--1~-|

Then play the verse again, but without the lead guitar, and play much quieter.

OUTRO:

e----------------------|
b----------------------|
g----------------------|
d--3-3--4-4--8-8--6-6~-|
a--3-3--4-4--8-8--6-6~-|
e--1-1--2-2--6-6--4-4~-|

And that's it. I think that's how it sounds.

LYRICS:

Verse:
I made this bed
I choose to lie in it
Live with my regrets
Sleep with what I said
Could this be the end
Am I standing on the edge
Of everything I wanted now

Pre-chorus:
I was afraid
I was afraid

Chorus:
Maybe I'm too scared
To face the things I fear
It's easier to walk away from everything

Verse 2:
Separate my soul
With all the things we shared
I'm falling to pieces now
Say a prayer for me (say a prayer for me)
When I go to sleep (cuz)
I'm in need of your faith now

Pre-chorus:
I was afraid

Chorus
Maybe I'm too scared
To face the things I fear
It's easier to walk away from everything
If we can just re-set
And live in happiness
Instead of our
Regrets to salvage everything
We don't have to walk away

Bridge:
Pray for me now
I'm in need of faith
Pray for me now
I'm in nee

Quiet verse:
Maybe I'm too scared
To face the things I fear
It's easier to walk away from everything

Chorus:
If we could just re-set
And live in happiness
Instead of our
Regreats to salvage everything

Maybe I'm too scared
Too face the things I fear
It's easier to walk away from everything

Walk away from everything
Walk away from everything
Suggest correction
comments
print report bad tab
1 comment total.
0 reply
representin GC 108 wrote on April 29 2007, 04:55 am

awsum tab

guest
You may want to rate the tab now too:
select rating
Wanna post a correction for this tab? Suggest correction