Oops, an error
Loading. Please wait.

Walk Away Tab

version 4
version 4

Whole song

Interactive

196 views 1 this week
no commentswrite comment
1 2 3 4 5
please rate
add to favorites
launch autoscroll
font size
0
reset
how to read this tab
guitar tuner
Autoscroll
slow
fast
+/-
esc
set tempo
stop
Help us to improve Ultimate-Guitar.com Take our survey!
×
Author
b>Song Title: Walk Away (Maybe)
Artist: Good Charlotte
Album: The Chronicles Of Life And Death (Sony 04')
Tuning: Down 1/2 a step
Transcribed by: xXxAMCxXx
E-mail: Stars_n_straps27@hotmail.com

Comment: Hey, this is my first tab which was, tabbed from the TCOLAD and, thier performance on 
         7th Avenue Drop. This is all my own work and, I am almost 99% sure this is right. 
         For comments or corrections feel free to e-mail me. Peace.' xXx 

 * Please don't steal or copy this tab! * 

Key:
. = Palm mute
x = Mute note
~ = Let ring
()= Notes tied / For Gtr. 1 (Billy) produced by delay.
\ = Slide down
/ = Slide up

Gtr. 1 - Billy (Lead)  Overdriven. - down 1/2 a step
Gtr. 2 - Benji (Rythtm)Distortion. - down 1/2 a step

*NOTE* - This tab also contains Paul's Bass tab for the Bass break.


 Good Charlotte - Walk Away (Maybe) 


Intro (Part 1) (0:00)

Gtr. 1 - Dist. (Billy)(0:00)

eb-----------------------------------------|
Bb-----------------------------------------|
Gb-----------------------------------------|
Db-3-3--4-4--8-8--6-6---3-3--4-4--8-8--6-6-|
Ab-3-3--4-4--8-8--6-6---3-3--4-4--8-8--6-6-|
Eb-1-1--2-2--6-6--4-4---1-1--2-2--6-6--4-4-|
                        ^Gtr. 2 (Benji) Joins Here. (0:03)


Intro (Part 2) - Gtr's 1 & 2 (0:06)

Gtr. 1 - O/drv. (Billy)
(0:05)         (0:06)
eb------------|---------------------------------------| X 2
Bb------------|---------------------------------------|
Gb-10--8-10---|8-8-8-6-6-6-8-8-8-6-6-6-10-10-10-8-6-6-|
Db------------|---------------------------------------|
Ab------------|---------------------------------------|
Eb------------|---------------------------------------|

Gtr. 2 - Dist. (Benji)(0:06)

eb------------------------------------------------| X 1 
Bb------------------------------------------------|
Gb------------------------------------------------|
Db-333-444-888-6(6)666666--333-444-888-6(6)666666-|
Ab-333-444-888-6(6)666666--333-444-888-6(6)666666-|
Eb-111-222-666-4(4)444444--111-222-666-4(4)444444-|


First-Verse (Part 1) (0:12)

Gtr. 2 - Dist. (Benji)(0:12)

eb---------------------------------------------------------------------| X 1
Bb---------------------------------------------------------------------|
Gb---------------------------------------------------------------------|
Db-8888888888888888-6666666666666666-4444444444444444-8888888888888888-|
Ab-8888888888888888-6666666666666666-4444444444444444-8888888888888888-|
Eb-6666666666666666-4444444444444444-2222222222222222-6666666666666666-|
PM ................ ................ ................ ................

Gtr. 1 - O/drv. (Billy)(0:12)

*NOTE* - Notes in ( ) are produced by delay.

eb--------------------------------| X 4
Bb--------------------------------|
Gb-6-(6)-(6)-(6)-(6)-(6)-(6)-(6)--|
Db--------------------------------|
Ab--------------------------------|
Eb--------------------------------|


First-Verse (Part 2) (0:24)

Gtr. 1 - O/drv. (Billy)(0:24)

eb-----------------------------------------|
Bb-121212--111111-101010101010101010101010-|
Gb- 8 8 8--7 7 7--6 6 6 6 6 6 6 6 6 6 6 6--|
Db- 9 9 9--8 8 8--7 7 7 7 7 7 7 7 7 7 7 7--|
Ab- x x x--x x x--x x x x x x x x x x x x--|
Eb-101010--9 9 9--8 8 8 8 8 8 8 8 8 8 8 8--| 

Gtr. 2 - Dist. (Benji)(0:24)

eb----------------------------------------|
Bb----------------------------------------|
Gb-8~~~~~~~~~~~~~~~~~~~~~~~~~~~~~~~~~~~~~~|
Db-8~~~~~~~~~~~~~~~~~~~~~~~~~~~~~~~~~~~~~~|
Ab-6~~~~~~~~~~~~~~~~~~~~~~~~~~~~~~~~~~~~~~|
Eb----------------------------------------|
Let ring -------------------------------->

Gtr. 1 - O/drv. (Billy)

eb-----------------------------------------|
Bb-141414--111111-101010101010101010101010-|
Gb-101010--7 7 7--6 6 6 6 6 6 6 6 6 6 6 6--|
Db-111111--8 8 8--7 7 7 7 7 7 7 7 7 7 7 7--|
Ab-x x x---x x x--x x x x x x x x x x x x--|
Eb-121212--9 9 9--8 8 8 8 8 8 8 8 8 8 8 8--| 

Gtr. 2 - Dist. (Benji)

eb----------------------------------------|
Bb----------------------------------------|
Gb----------------------------------------|
Db-6~~~~~~~~~~~~~~~~~~~~~~~~~~~~~~~~~~~~~~|
Ab-6~~~~~~~~~~~~~~~~~~~~~~~~~~~~~~~~~~~~~~|
eb-4~~~~~~~~~~~~~~~~~~~~~~~~~~~~~~~~~~~~~~|
Let ring --------------------------------->

Gtr. 1 - O/drv. (Billy)

eb-----------------------------------------|
Bb-121212--111111-101010101010101010101010-|
Gb- 8 8 8--7 7 7--6 6 6 6 6 6 6 6 6 6 6 6--|
Db- 9 9 9--8 8 8--7 7 7 7 7 7 7 7 7 7 7 7--|
Ab- x x x--x x x--x x x x x x x x x x x x--|
Eb-101010--9 9 9--8 8 8 8 8 8 8 8 8 8 8 8--| 

Gtr. 2 - Dist. (Benji)

eb----------------------------------------|
Bb----------------------------------------|
Gb----------------------------------------|
Db-4~~~~~~~~~~~~~~~~~~~~~~~~~~~~~~~~~~~~~~|
Ab-4~~~~~~~~~~~~~~~~~~~~~~~~~~~~~~~~~~~~~~|
Eb-2~~~~~~~~~~~~~~~~~~~~~~~~~~~~~~~~~~~~~~|
Let ring --------------------------------->

Gtr. 1 - O/drv. (Billy)

eb-------------------------------|
Bb-121212--111111-101010--999999-|
Gb- 8 8 8--7 7 7--6 6 6---555555-|
Db- 9 9 9--8 8 8--7 7 7---666666-|
Ab- x x x--x x x--x x x---xxxxxx-|
Eb-101010--9 9 9--8 8 8---777777-|

Gtr. 2 - Dist. (Benji)

eb-------------------------------|
Bb-------------------------------|
Gb-8~~~~~~~~~~~~~~~~~~~----------|
Db-8~~~~~~~~~~~~~~~~~~~---222222-|
Ab-6~~~~~~~~~~~~~~~~~~~---222222-|
Eb------------------------000000-|
Let ring -------------> 


First Pre-Chorus (0:36)

Both Gtr's - Dist.

eb--------------------|-------------| X 2
Bb--------------------|-------------|
Gb-3-3-------3-3------|-8-8-6-6-8-6-|
Db-3-3--4-4--3-3--4-4-|-------------|
Ab-1-1--4-4--1-1--4-4-|-------------|
Eb------2-2-------2-2-|-------------|
                       Gtr. 1 - O/drv. (Billy)
                       Comes in with this 
                       each time after.
Then,

Both Gtr's - Dist. * Here, slide from 133 down to 244 and, vice-versa. * 

                               Gtr. 1 - O/drv. (Billy) Fill.
eb----------------------------|-------------| 
Bb----------------------------|-------------|
Gb-3-3-------3-3--------------|-8-8-6-6-8-6-| 
Db-3-3--4-4--3-3--4-4--444444-|-------------|
Ab-1-1--4-4--1-1--4-4--444444-|-------------|
eb------2-2-------2-2--222222-|-------------|
                       ^Gtr. 1 (Billy) plays this ontop here.


First Chorus (0:46)

Gtr. 1 - O/drv. (Billy) * He fingerpicks this part of the chorus. *

eb--------------------------------------------------------------|
Bb------------------2222------222-22-22222----------------------|
Gb------------------4444-2222-444-33-44444----------------------|
Db-6666666666666666------xxxx--------------66666666666666666666-|
Ab--------------------------------------------------------------|
Eb--------------------------------------------------------------|

Gtr. 2 - Dist. (Benji)

eb--------------------------------------------------------|
Bb--------------------------------------------------------|
Gb-6666666666666666------------------33333333333333333333-|
Db-6666666666666666-4444444444444444-33333333333333333333-|
Ab-4444444444444444-4444444444444444-11111111111111111111-|
Eb------------------2222222222222222----------------------|

Then both Gtr's - Dist. (0:55)

eb--------------------|----------| Gtr. 1 - O/drv. (Billy) 
Bb--------------------|----------| plays this right
Gb--------------------|-10--8-10-| after.
Db-3-3--4-4--8-8--6-6-|----------|
Ab-3-3--4-4--8-8--6-6-|----------|
Eb-1-1--2-2--6-6--4-4-|----------|


Then back to Intro (Part 1) (0:58)

Gtr. 1 - O/drv. (Billy)(0:58)

eb----------------------------------------| X 1
Bb----------------------------------------|
Gb-8-8-8-6-6-6-8-8-8-6-6-6-10-10-10-8-6-6-|
Db----------------------------------------|
Ab----------------------------------------|
Eb----------------------------------------|

Gtr. 2 - Dist. (Benji)(0:58)

eb------------------------| X 1 
Bb------------------------|
Gb------------------------|
Db-333-444-888-6(6)666666-|
Ab-333-444-888-6(6)666666-|
Eb-111-222-666-4(4)444444-|
                 

Second-Verse (Part 1) (1:01)

Gtr. 2 - Dist. (Benji)(1:01) * Pick this time faster, than in the first-verse. *

eb-------------------------------------------------------------------------------------| X 1
Bb-------------------------------------------------------------------------------------|
Gb-------------------------------------------------------------------------------------|
Db-------------------------------------------------------------------------------------|
Ab-88888888888888888888-66666666666666666666-44444444444444444444-88888888888888888888-|
Eb-66666666666666666666-44444444444444444444-22222222222222222222-66666666666666666666-|
PM .................... .................... .................... ....................

Gtr. 1 - O/drv. (Billy)(1:01)

*NOTE* - Notes in ( ) are again, produced by delay.

eb--------------------------------| X 4
Bb--------------------------------|
Gb-6-(6)-(6)-(6)-(6)-(6)-(6)-(6)--|
Db--------------------------------|
Ab--------------------------------|
Eb--------------------------------|

After this go back to,

First-Verse (Part 2). (1:14)

Then,

Second Pre-Chorus (1:26)

Both Gtr's - Dist.

eb--------------------|-------------| X 1
Bb--------------------|-------------|
Gb-3-3-------3-3------|-8-8-6-6-8-6-|
Db-3-3--4-4--3-3--4-4-|-------------|
Ab-1-1--4-4--1-1--4-4-|-------------|
Eb------2-2-------2-2-|-------------|
                       Gtr. 1 - O/drv. (Billy)
                       Comes in with this once.

Then it goes,

Both Gtr's - Dist. * Again, slide from 133 down to 244 and, vice-versa. *

eb----------------------------|
Bb----------------------------|
Gb-3-3-------3-3--------------|
Db-3-3--4-4--3-3--4-4--444444-|
Ab-1-1--4-4--1-1--4-4--444444-|
Eb------2-2-------2-2--222222-|


Second Chorus (Play Twice) (1:32)

Gtr. 1 - O/drv. (Billy) * He fingerpicks this part of the chorus as in the first one. *

eb--------------------------------------------------------------|
Bb------------------2222------222-22-22222----------------------|
Gb------------------4444-2222-444-33-44444----------------------|
Db-6666666666666666------xxxx--------------66666666666666666666-|
Ab--------------------------------------------------------------|
Eb--------------------------------------------------------------|

Gtr. 2 - Dist. (Benji)

eb--------------------------------------------------------|
Bb--------------------------------------------------------|
Gb-6666666666666666------------------33333333333333333333-|
Db-6666666666666666-4444444444444444-33333333333333333333-|
Ab-4444444444444444-4444444444444444-11111111111111111111-|
Eb------------------2222222222222222----------------------|

Then both Gtr's - Dist. (1:42)

eb--------------------|----------| Gtr. 1 - O/drv. (Billy) 
Bb--------------------|----------| plays this right
Gb--------------------|-10--8-10-| after.
Db-3-3--4-4--8-8--6-6-|----------|
Ab-3-3--4-4--8-8--6-6-|----------|
Eb-1-1--2-2--6-6--4-4-|----------|


Then again, play Intro (Part 2) (1:56)

Gtr. 1 - O/drv. (Billy)(1:56)

eb----------------------------------------| X 1
Bb----------------------------------------|
Gb-8-8-8-6-6-6-8-8-8-6-6-6-10-10-10-8-6-6-|
Db----------------------------------------|
Ab----------------------------------------|
Eb----------------------------------------|

Gtr. 2 - Dist. (Benji)(1:56)

eb------------------------| X 1 
Bb------------------------|
Gb------------------------|
Db-333-444-888-6(6)666666-|
Ab-333-444-888-6(6)666666-|
Eb-111-222-666-4(4)444444-|


Pre-Bridge Break (1:59)

Both Gtr's 

eb------------------|
Eb------------------|
Gb------------------|
Db--4~~~~-----3~~~~-|
Ab--4~~~~-----3~~~~-|
Eb--2~~~~-----1~~~~-|
    ^Let Ring ^Let Ring


Bridge (2:00)

Piano Interlude (2:00)-(2:05)

Both Gtr's - Dist.  (2:06)

eb-----------------------------------------------------|
Eb-----------------------------------------------------|
Gb-----------------------------------------------------|
Db-88888888-66666666-4-4-4~~-3-3-3~~-88888888-66666666-|
Ab-88888888-66666666-4-4-4~~-3-3-3~~-88888888-66666666-|
Eb-66666666-44444444-2-2-2~~-1-1-1~~-66666666-44444444-| x1
                         ^<----->^ Let ring

Bass Break (2:24)-(2:33)

Bass (2:24) 

Gb----------------------------------------------------------------------------------------------------|
Db----------------------------------------------------------------------------------------------------|
Ab-14141414141414141414141414141414----------------------------------11111111111111111111111111111111-|
Eb----------------------------------12121212121212121212121212121212----------------------------------|
PM................................. ................................ ................................


Then both Gtr's  (2:33)

Eb--------------------|
Bb--------------------|
Gb--------------------|
Db-3-3--4-4--8-8--6-6-|
Ab-3-3--4-4--8-8--6-6-|
Eb-1-1--2-2--6-6--4-4-| 


Out-Chorus (Play Twice) (2:36)

Gtr. 1 - O/drv. (Billy) * He fingerpicks this part of the chorus again. *

eb--------------------------------------------------------------|
Bb------------------2222------222-22-22222----------------------|
Gb------------------4444-2222-444-33-44444----------------------|
Db-6666666666666666------xxxx--------------66666666666666666666-|
Ab--------------------------------------------------------------|
Eb--------------------------------------------------------------|

Gtr. 2 - Dist. (Benji)

eb--------------------------------------------------------|
Bb--------------------------------------------------------|
Gb-6666666666666666------------------33333333333333333333-|
Db-6666666666666666-4444444444444444-33333333333333333333-|
Ab-4444444444444444-4444444444444444-11111111111111111111-|
Eb------------------2222222222222222----------------------|

Then both Gtr's - Dist. (2:46)

eb--------------------|----------| Gtr. 1 - O/drv. (Billy) 
Bb--------------------|----------| plays this right
Gb--------------------|-10--8-10-| after.
Db-3-3--4-4--8-8--6-6-|----------|
Ab-3-3--4-4--8-8--6-6-|----------|
Eb-1-1--2-2--6-6--4-4-|----------|


Outro (3:00)

Then one last time, play Intro (Part 2) (3:00)

Gtr. 1 - O/drv. (Billy)(3:00)

eb----------------------------------------| X 2
Bb----------------------------------------|
Gb-8-8-8-6-6-6-8-8-8-6-6-6-10-10-10-8-6-6-|
Db----------------------------------------|
Ab----------------------------------------|
Eb----------------------------------------|

Gtr. 2 - Dist. (Benji)(3:00) * The first time, slide into 133 from above. * 

eb------------------------| X 2
Bb------------------------|
Gb------------------------|
Db-333-444-888-6(6)666666-|
Ab-333-444-888-6(6)666666-|
Eb-111-222-666-4(4)444444-|


Ending  (3:07)

Both Gtr's - Dist. 

eb-------------------------|
Bb-------------------------|
Gb-------------------------|
Db-3-3--4-4--8-8--6-6~~~~~~|
Ab-3-3--4-4--8-8--6-6~~~~~~|
Eb-1-1--2-2--6-6--4-4~~~~~~|
                    ^ Let ring until it fades.
Suggest correction new What's this?
You can suggest a correction to this tab. Community and Mods will review your correction and vote to approve or reject it.
comments
We did not receive enough feedback on this tab! Please rate:
print report bad tab
1 2 3 4 5
guest
You may want to rate the tab now too:
select rating
Please do not post tabs as comments. Select "correction" instead!