Oops, an error
Loading. Please wait.

Walk Away Tab

version 5
version 5

Whole song

Interactive

1,452 views 1 this week
5 commentsread comments
1 2 3 4 5
excellent!
x 7
add to favorites
launch autoscroll
font size
0
reset
how to read this tab
guitar tuner
Tab Pro tools
  • play this tab
  • loop segment
  • change instrument
  • show fretboard
  • metronome
×
Best way to learn
"Walk Away"
Autoscroll
slow
fast
+/-
esc
set tempo
stop
Contributor
 Walk Away (Maybe)

Tuning, 1/2 Step down ( eb,Bb,Gb,Db,Ab,Eb )


Intro Gt.1            
eb|--------------------------|----------------------------------|
Bb|--------------------------|----------------------------------|
Gb|--------------------------|----------------------------------|
Db|-44-55-99-77--44-55-99-77-|-444-555-999-777--444-555-999-777-|
Ab|-44-55-99-77--44-55-99-77-|-444-555-999-777--444-555-999-777-|
Eb|-22-33-77-55--22-33-77-55-|-222-333-777-555--222-333-777-555-| x1

Intro Gt.2 (0:06)
eb|------------------------------|
Bb|------------------------------|
Gb|-11-9-77-77--11-9-77-77--11-9-|
Db|------------------------------|
Ab|------------------------------|
Eb|------------------------------| x1

Verse Gt.1 (0:12)
eb|-------------------------------------|
Bb|-------------------------------------|
Gb|----------------------------77777777-|
Db|-99999999-77777777-55555555-77777777-|
Ab|-99999999-77777777-55555555-55555555-|
Eb|-77777777-55555555-33333333----------| x2
PM  ........ ........ ........ ........

Verse Gt.2 (0:12)
eb|---------|-------------------------------|
Bb|---------|-------------------------------|
Gb|-7-(x32)-|-7-6-4---6-7-2---4-6-----7-6-4-|
Db|---------|---------------------5---------|
Ab|---------|-------------------------------|
Eb|---------|-------------------------------| x1

Pre-Chorus (0:37)
eb|-------------|
Bb|-------------|
Gb|-44----44----|
Db|-44-55-44-55-|
Ab|-22-55-33-55-|
Eb|----33----33-| x3

Chorus (0:46)
eb|-------------------------------|-------------|
Bb|-------------------------------|-------------|
Gb|-7777-7777-----------4444-4444-|-------------|
Db|-7777-7777-5555-5555-4444-4444-|-44-55-99-77-|
Ab|-5555-5555-5555-5555-2222-2222-|-44-55-99-77-|
Eb|-----------3333-3333-----------|-22-33-77-55-|
                              x1|           x2|

Verse Gt.1 & 2 (1:01)
Pre-Chorus x2 (1:26)


Chorus (1:32)

eb|-------------------------------|
Bb|-------------------------------|
Gb|-7777-7777-----------4444-4444-|
Db|-7777-7777-5555-5555-4444-4444-|
Ab|-5555-5555-5555-5555-2222-2222-|
Eb|-----------3333-3333-----------|
                              


eb|-------------------------------|-------------|
Bb|-------------------------------|-------------|
Gb|-7777-7777-----------4444-4444-|-------------|
Db|-7777-7777-5555-5555-4444-4444-|-44-55-99-77-|
Ab|-5555-5555-5555-5555-2222-2222-|-44-55-99-77-|
Eb|-----------3333-3333-----------|-22-33-77-55-|
                                            x2

Break (1:59)
eb|---------|
Bb|---------|
Gb|---------|
Db|-5~~-4~~-|
Ab|-5~~-4~~-|
Eb|-3~~-2~~-| x1

Interlude (2:06)
eb|---------------------------------------------------|
Bb|---------------------------------------------------|
Gb|---------------------------------------------------|
Db|-99999999-77777777-5-5-5--4-4-4--99999999-77777777-|
Ab|-99999999-77777777-5-5-5--4-4-4--99999999-77777777-|
Eb|-77777777-5555555--3-3-3--2-2-2--77777777-55555555-| x1

Bass Break (2:24)

Chorus (2:33)

eb|-------------|-------------------------------|
Bb|-------------|-------------------------------|
Gb|-------------|-7777-7777-----------4444-4444-|
Db|-44-55-99-77-|-7777-7777-5555-5555-4444-4444-|
Ab|-44-55-99-77-|-5555-5555-5555-5555-2222-2222-|
Eb|-22-33-77-55-|-----------3333-3333-----------|

eb|-------------|-------------------------------|
Bb|-------------|-------------------------------|
Gb|-------------|-7777-7777-----------4444-4444-|
Db|-44-55-99-77-|-7777-7777-5555-5555-4444-4444-|
Ab|-44-55-99-77-|-5555-5555-5555-5555-2222-2222-|
Eb|-22-33-77-55-|-----------3333-3333-----------|
            

Ending (2:57)
eb|-------------|
Bb|-------------|
Gb|-------------|
Db|-44-55-99-77-|
Ab|-44-55-99-77-|
Eb|-22-33-77-55-| x4
comments
print report bad tab
5 comments total. Showing first comments.
0 reply
mcr_02_fan wrote on September 26 2005, 02:01 pm

these tabs are awsome i give it ***** stars keep it up dude =)

0 reply
mcr_02_fan wrote on September 26 2005, 02:05 pm

oh and uh i know skylines and turnstiles its coming soon i posted it today so hope you think it is good seeya =)

0 reply
HurricaneSG wrote on July 6 2006, 10:03 am

mcr 02 fan is prolly a fake account .......

I want to post or [tab]
guest
You may want to rate the tab now too:
select rating
Please do not post tabs as comments. Select "correction" instead!