Oops, an error
Loading. Please wait.

Walk By Tab

version 1
version 1

Whole song

Interactive

2,803 views 1 this week
7 commentsread comments
1 2 3 4 5
accurate
x 9
add to favorites
launch autoscroll
font size
0
reset
how to read this tab
guitar tuner
Autoscroll
slow
fast
+/-
esc
set tempo
stop
Help us to improve Ultimate-Guitar.com Take our survey!
×
-------------------------------------------------------------------------------
                            WALK BY  -  GOOD CHARLOTTE
-------------------------------------------------------------------------------

INTRO:
e|---------------------------------------------------------------------|
B|---------------------------------------------------------------------|
G|-------5-------------------------------------------------------------|
D|-----------5--3-3-3h5p0----------------------------------------------|
A|---3-----------------------------------------------------------------|
E|---------------------------------------------------------------------|
VERSE: just bass
CHORUS:
        c      a       g      f
e|------------------------------------------------------------------------|
B|------------------------------------------------------------------------|
G|------5-----------------------------------------------------------------|
D|------5------7-------5-----3--------------------------------------------|
A|------2------7-------5-----3--------------------------------------------|
E|-------------5-------3-----1--------------------------------------------|
BRIDGE
        a       c      g      f
e|------------------------------------------------------------------------|
B|------------------------------------------------------------------------|
G|--------------5---------------------------------------------------------|
D|------7-------5------5------3-------------------------------------------|
A|------7-------3------5------3-------------------------------------------|
E|------5--------------3------1-------------------------------------------|
you just gotta figure out the way to play it, it's not hard, just listen 
to the song
Okie dokie, thats basicly it, i think its almost %100
i didn't see any tabs for it when i wanted to learn it so i tabbed it myself,
not totally sure for the bridge cuz i didn't listen to that part alot, and
theres spose to be a bit of a solo in there, but hey i did this in 2 mins.
                      ENJOY!
===============================================================================
Suggest correction
comments
print report bad tab
7 comments total. Showing first comments.
0 reply
KatKrap182 10 wrote on January 5 2003, 12:00 am

INTRO:
e|-------------------------------------|
B|-------------------------------------|
G|-------5-----------------------------|
D|-----------0--3-3-3h5p0--------------|
A|---3---------------------------------|
E|-------------------------------------|

0 reply
MxfxGuitardrmr 10 wrote on April 5 2003, 12:00 am

Great job on the intro but the chords are
g--5---------------
d--5-----7----5---3
a--3-----7----5---3
E--------5----3---1

otherwise good job

-1 reply
imtehroxz0rz 10 wrote on April 11 2004, 12:00 am

you're a homo

guest
You may want to rate the tab now too:
select rating
Please do not post tabs as comments. Select "correction" instead!