Oops, an error
Loading. Please wait.

War Tab

455 views 1 this week
no commentswrite comment
1 2 3 4 5
x 10
add to favorites
launch autoscroll
font size
0
reset
how to read this tab
guitar tuner
Autoscroll
slow
fast
+/-
esc
set tempo
stop
Help us to improve Ultimate-Guitar.com Take our survey!
×
Author
Difficulty
Tuning
novice
D# G# C# F# A# D#
Artist: Good Charlotte
Song: War
Album: Greatest Remixes (2008)
Tabbed by: necriononguitar
e-mail: Tim.rathgen@gmx.de

REAL FANS SUPPORT BANDS BY PURCHASING THEIR CD'S!!!


Tuning: Half-Step Down

. = Palm-Muted
~ = hold note
^ = vibrate
p = pull off
h = hammer on
/ = slide up
\ = slide down


//Intro, Interlude\\:
  [ PM ]
E---------------------------------|
B---------------------------------|
G---------------------------------|
D---9---------9/0-----------------|
A---9--x24----9/0-----------------|
E---7---------7/0-----------------|

//Chorus\\:
      A         E              B
E-------------------------------------------|
B------------------------[--7-times--]------|
G---------------------4--4-4-4-4-4-4-4------|
D---7--7-7----2-2-2---4--4-4-4-4-4-4-4------|
A---7--7-7----2-2-2---2--2-2-2-2-2-2-2------|
E---5--5-5----0-0-0-------------------------|

Or
        A       E     B
E----------------------------------|
B----------------------------------|
G----------------------------------|
D----7--7-7---9-9-9---9------------|
A----7--7-7---7-7-7---9-...--------|
E----5--5-5---0-0-0---7------------|

At the end of the chorus theres a 2. guitar playing something like this.
E---------------------------|
B---4~--4-4-4-5-4-2-0-------|
G---------------------------|
D---------------------------|
A---------------------------|
E---------------------------|


//Verse\\: (All PM!) same chords
E-----------------------------------|
B-----------------------------------|
G-----------------------------------|
D-----------------------------------|
A--7-7-7-7---7-7-7---9-x9-----------|
E--5-5-5-5---0-0-0---7--------------|

After a few times without PM

Now they just repeat these parts:
-Interlude
-Chorus
-Verse (without guitar, call and response)
-Verse (with bass)
-Interlude
-Chorus
-Break I, same as verse (Without guitar)
-Interlude
-Break II, same as Chorus
-Chorus

-Outro Interlude


Thats it! I hope this helped, please rate, comment and correct me!

Cheers...
Suggest correction
comments
print report bad tab
guest
You may want to rate the tab now too:
select rating
Wanna post a correction for this tab? Suggest correction