Oops, an error
Loading. Please wait.

Where Would We Be Now Tab

version 1
version 1

Whole song

Interactive

4,377 views 1 this week
2 commentsread comments
1 2 3 4 5
excellent!
x 3
add to favorites
launch autoscroll
font size
0
reset
how to read this tab
guitar tuner
Autoscroll
slow
fast
+/-
esc
set tempo
stop
Help us to improve Ultimate-Guitar.com Take our survey!
×
Author
Difficulty
novice
-------------------------------------------------------------------------
                  Where Would We Be Now - Good Charlotte
-------------------------------------------------------------------------

Tabbed by: DoctorGary
Email: vehemence@mail.utexas.edu

This is basically the part played by the piano. There are two main parts. Just play and 
each part as needed. This sounds very accurate; pretty good considering I'm a newb. Enjoy!


Tuning: standard


Part I

e|------15---------15---------15---------15----|
B|--17----17---17----17---17----17---17----17--|
G|----17---------17---------17---------17------|
D|---------------------------------------------|
A|---------------------------------------------|
E|---------------------------------------------|

e|------15---------15---------15---------15----|
B|--17----17---17----17---17----17---17----17--|
G|----16---------16---------16---------16------|
D|---------------------------------------------|
A|---------------------------------------------|
E|---------------------------------------------|

e|------17---------17---------17---------17----|
B|--18----18---18----18---18----18---18----18--|
G|----17---------17---------17---------17------|
D|---------------------------------------------|
A|---------------------------------------------|
E|---------------------------------------------|

e|------16---------16---------16---------16----|
B|--18----18---18----18---18----18---18----18--|
G|----17---------17---------17---------17------|
D|---------------------------------------------|
A|---------------------------------------------|
E|---------------------------------------------|

Part II

e|-17-----17-----17-----16-----16-----16-------|
B|---18-----18-----18-----18-----18-----18-----|
G|-----17-----17------------17-----17----------|
D|---------------------------------------------|
A|---------------------------------------------|
E|---------------------------------------------|

e|-15-----15-----15-----15-----15-----15-------|
B|---17-----17-----17-----17-----17-----17-----|
G|-----17-----17------------17-----17----------|
D|---------------------------------------------|
A|---------------------------------------------|
E|---------------------------------------------|
Suggest correction
Give kudos to tab author, rate the tab!
1 2 3 4 5
comments
print report bad tab
2 comments total.
0 reply
UGROQFAN 122 wrote on April 16 2007, 07:10 pm

GOOD JOB!!!
this is like a cool tab and it's about time someone tabbed it.

0 reply
I_M_SOLID 10 wrote on April 21 2007, 01:17 am

can sum1 tab da hole song

guest
You may want to rate the tab now too:
select rating
Please do not post tabs as comments. Select "correction" instead!