Oops, an error
Loading. Please wait.

Where Would We Be Now Tab

version 2
version 2

Whole song

Interactive

2,971 views 1 this week
no commentswrite comment
1 2 3 4 5
accurate
x 6
add to favorites
launch autoscroll
font size
0
reset
how to read this tab
guitar tuner
Tab Pro tools
  • play this tab
  • loop segment
  • change instrument
  • show fretboard
  • metronome
×
Best way to learn
"Where Would We Be Now"
Autoscroll
slow
fast
+/-
esc
set tempo
stop
Contributor
Difficulty
intermediate
-------------------------------------------------------------------------
                  Where Would We Be Now - Good Charlotte
-------------------------------------------------------------------------

Tabbed by: guitarwomen
Email: missy_gcfan_17@hotmail.com

This is my first tab but I think its pretty much it so enjoy!...
This cd is awsome so is this band!


Tuning: standard


Intro and verse 1: 

e|------3--------3--------3--------3-----------|
B|--5--------5--------5--------5---------------|
G|----5---5----5---5----5---5----5---5---------|
D|---------------------------------------------|
A|---------------------------------------------|
E|---------------------------------------------|

e|------3--------3--------3--------3-----------|
B|--5--------5--------5--------5---------------|
G|----4---4----4---4----4---4----4---4---------|
D|---------------------------------------------|
A|---------------------------------------------|
E|---------------------------------------------|

e|------6--------6--------6--------6-----------|
B|--6--------6--------6--------6---------------|
G|----5---5----5---5----5---5----5---5---------|
D|---------------------------------------------|
A|---------------------------------------------|
E|---------------------------------------------|

e|------4--------4--------4--------4-----------|
B|--6--------6--------6--------6---------------|
G|----5---5----5---5----5---5----5---5---------|
D|---------------------------------------------|
A|---------------------------------------------|
E|---------------------------------------------|


Bridge:

e|--1-1---1-1---3-3---3-3----------------------|
B|--2-2---2-2---3-3---3-3----------------------|
G|--3-3---3-3----------------------------------|
D|---------------------------------------------|
A|--------------2-2---2-2----------------------|
E|--------------3-3---3-3----------------------|
    (Dm)  (Dm)  (G)   (G)

Chorus: (2x)

e|--6------6------6-----3-----3-----3----3-----3-----3---3-----3----|
B|----5------5------5-----5-----5----------3-----3---------3-----3--|
G|------6------6------------5-----5---5------4-----4---4-----4-----4|
D|------------------------------------------------------------------|
A|------------------------------------------------------------------|
E|------------------------------------------------------------------|
   (Dm)                 (Am)             (G)
comments
print report bad tab
I want to post or [tab]
guest
You may want to rate the tab now too:
select rating
Please do not post tabs as comments. Select "correction" instead!