Oops, an error
Loading. Please wait.

Where Would We Be Now Tab

version 4
version 4

Whole song

Interactive

1,017 views 1 this week
3 commentsread comments
1 2 3 4 5
please rate
add to favorites
launch autoscroll
font size
0
reset
how to read this tab
guitar tuner
Autoscroll
slow
fast
+/-
esc
set tempo
stop
Help us to improve Ultimate-Guitar.com Take our survey!
×
Author
Difficulty
intermediate
Guitar 1 – EADGBE – clean          (or piano)
Guitar 2 – EAGBDE - distortion
Guitar 3 – EAGBDE – soft distortion


Intro

3x Guitar 1
|-----3-------3---|-----3-------3---|-----3-------3---|-----3-------3---|
|-5-------5-------|-5-------5-------|-5-------5-------|-5-------5-------|
|---5---5---5---5-|---5---5---5---5-|---4---4---4---4-|---4---4---4---4-|
|-----------------|-----------------|-----------------|-----------------|
|-----------------|-----------------|-----------------|-----------------|
|-----------------|-----------------|-----------------|-----------------|

|-----5-------5---|-----5-------5---|-----4-------4---|-----4-------4---|
|-6-------6-------|-6-------6-------|-6-------6-------|-6-------6-------|
|---5---5---5---5-|---5---5---5---5-|---5---5---5---5-|---5---5---5---5-|
|-----------------|-----------------|-----------------|-----------------|
|-----------------|-----------------|-----------------|-----------------|
|-----------------|-----------------|-----------------|-----------------|


Pre-Chorus

1x Guitar 1
|-1-1--|-1-1--|-3-3--|-3-3--|-1-1--|-1-1--|-3-3--|-3-3--|
|-2-2--|-2-2--|-3-3--|-3-3--|-2-2--|-2-2--|-3-3--|-3-3--|
|-3-3--|-3-3--|------|------|-3-3--|-3-3--|------|------|
|------|------|------|------|------|------|------|------|
|------|------|------|------|------|------|------|------|
|------|------|-3-3--|-3-3--|------|------|-3-3--|-3-3--|


Chorus

2x Guitar 1
|-5-----5-----5---|-3-----3-----3---|-3-----3-----3---|-3-----3-----3---|
|---6-----------6-|---5-----------5-|---3-----------3-|---3-----------3-|
|-----5-----5-----|-----5-----5-----|-----4-----4-----|-----4-----4-----|
|-----------------|-----------------|-----------------|-----------------|
|-----------------|-----------------|-----------------|-----------------|
|-----------------|-----------------|-----------------|-----------------|

2x Guitar 2
|-----------------|-----------------|-----------------|-----------------|
|-----------------|-----------------|-----------------|-----------------|
|-----------------|-5-5-5-5-5-5-5-5-|-----------------|-----------------|
|-3-3-3-3-3-3-3-3-|-5-5-5-5-5-5-5-5-|-5-5-5-5-5-5-5-5-|-5-5-5-5-5-5-5-5-|
|-3-3-3-3-3-3-3-3-|-3-3-3-3-3-3-3-3-|-5-5-5-5-5-5-5-5-|-5-5-5-5-5-5-5-5-|
|-1-1-1-1-1-1-1-1-|-----------------|-3-3-3-3-3-3-3-3-|-3-3-3-3-3-3-3-3-|

 
1x Guitar 3
|-----|-----|-----|-----------------|-----------------|-----|-----|-----|
|-----|-----|-----|-------------1312|-----------------|-----|-----|-----|
|-----|-----|-----|-----------------|-14--------------|-12--|(12)-|-----|
|-----|-----|-----|-----------------|-----------------|-----|-----|-----|
|-----|-----|-----|-----------------|-----------------|-----|-----|-----|
|-----|-----|-----|-----------------|-----------------|-----|-----|-----|
Note: 1st 3 bars the guitar is silent; not 1 and 3 but 13


Verse

2x Guitar 1
|-----3-------3---|-----3-------3---|-----3-------3---|-----3-------3---|
|-5-------5-------|-5-------5-------|-5-------5-------|-5-------5-------|
|---5---5---5---5-|---5---5---5---5-|---4---4---4---4-|---4---4---4---4-|
|-----------------|-----------------|-----------------|-----------------|
|-----------------|-----------------|-----------------|-----------------|
|-----------------|-----------------|-----------------|-----------------|

|-----5-------5---|-----5-------5---|-----4-------4---|-----4-------4---|
|-6-------6-------|-6-------6-------|-6-------6-------|-6-------6-------|
|---5---5---5---5-|---5---5---5---5-|---5---5---5---5-|---5---5---5---5-|
|-----------------|-----------------|-----------------|-----------------|
|-----------------|-----------------|-----------------|-----------------|
|-----------------|-----------------|-----------------|-----------------|

1x Guitar 2
|-----3---3-------|-----3---3-------|-----3---3-------|-----3---3-------|
|---5-------5-----|---5-------5-----|---5-------5-----|---5-------5-----|
|-5-----------5---|-5-----------5---|-4-----------4---|-4-----------4---|
|-----------------|-----------------|-----------------|-----------------|
|-----------------|-----------------|-----------------|-----------------|
|-----------------|-----------------|-----------------|-----------------|
  . . .   . . .     . . .   . . .     . . .   . . .     . . .   . . .
|-----5---5-------|-----5---5-------|-----4---4-------|-----4---4-------|
|---6-------6-----|---6-------6-----|---6-------6-----|---6-------6-----|
|-5-----------5---|-5-----------5---|-5-----------5---|-5-----------5---|
|-----------------|-----------------|-----------------|-----------------|
|-----------------|-----------------|-----------------|-----------------|
|-----------------|-----------------|-----------------|-----------------|
  . . .   . . .     . . .   . . .     . . .   . . .     . . .   . . .
|-----------------|-----------------|-----------------|-----------------|
|-----------------|-----------------|-----------------|-----------------|
|-----------------|-----------------|-----------------|-----------------|
|-5-5-5-5-5-5-5-5-|-5-5-5-5-5-5-5-5-|-----------------|-----------------|
|-3-3-3-3-3-3-3-3-|-3-3-3-3-3-3-3-3-|-2-2-2-2-2-2-2-2-|-2-2-2-2-2-2-2-2-|
|-----------------|-----------------|-0-0-0-0-0-0-0-0-|-0-0-0-0-0-0-0-0-|
  . . . . . . . .   . . . . . . . .   . . . . . . . .   . . . . . . . .
|-----------------|-----------------|-----------------|-----------------|
|-----------------|-----------------|-----------------|-----------------|
|-----------------|-----------------|-----------------|-----------------|
|-----------------|-----------------|-----------------|-----------------|
|-3-3-3-3-3-3-3-3-|-3-3-3-3-3-3-3-3-|-6-6-6-6-6-6-6-6-|-6-6-6-6-6-6-6-6-|
|-1-1-1-1-1-1-1-1-|-1-1-1-1-1-1-1-1-|-4-4-4-4-4-4-4-4-|-4-4-4-4-4-4-4-4-|
  . . . . . . . .   . . . . . . . .   . . . . . . . .   . . . . . . . .
Note: I’m not sure about the last 2 bars; for the 1st 8 bars you can use an octave pedal (1 octave down)


Pre-Chorus

1x Guitar 1
|-1-1--|-1-1--|-3-3--|-3-3--|-1-1--|-1-1--|-3-3--|-3-3--|
|-2-2--|-2-2--|-3-3--|-3-3--|-2-2--|-2-2--|-3-3--|-3-3--|
|-3-3--|-3-3--|------|------|-3-3--|-3-3--|------|------|
|------|------|------|------|------|------|------|------|
|------|------|------|------|------|------|------|------|
|------|------|-3-3--|-3-3--|------|------|-3-3--|-3-3--|

1x Guitar 2
|------|------|------|------|------|------|------|------|
|------|------|------|------|------|------|------|------|
|------|------|------|------|------|------|------|------|
|-7----|-7----|------|------|-7----|-7----|------|------|
|-5----|-5----|-5----|-5----|-5----|-5----|-5----|-5----|
|------|------|-3----|-3----|------|------|-3----|-3----|
  .      .      .      .      .      .      .      .
Note: Play every chord 8 times (just guitar 2)


Chorus

4x Guitar 1
|-5-----5-----5---|-3-----3-----3---|-3-----3-----3---|-3-----3-----3---|
|---6-----------6-|---5-----------5-|---3-----------3-|---3-----------3-|
|-----5-----5-----|-----5-----5-----|-----4-----4-----|-----4-----4-----|
|-----------------|-----------------|-----------------|-----------------|
|-----------------|-----------------|-----------------|-----------------|
|-----------------|-----------------|-----------------|-----------------|

4x Guitar 2
|-----------------|-----------------|-----------------|-----------------|
|-----------------|-----------------|-----------------|-----------------|
|-----------------|-5-5-5-5-5-5-5-5-|-----------------|-----------------|
|-3-3-3-3-3-3-3-3-|-5-5-5-5-5-5-5-5-|-5-5-5-5-5-5-5-5-|-5-5-5-5-5-5-5-5-|
|-3-3-3-3-3-3-3-3-|-3-3-3-3-3-3-3-3-|-5-5-5-5-5-5-5-5-|-5-5-5-5-5-5-5-5-|
|-1-1-1-1-1-1-1-1-|-----------------|-3-3-3-3-3-3-3-3-|-3-3-3-3-3-3-3-3-|

2x Guitar 3
|-----|-----|-----|-----------------|-----------------|-----|-----|-----|
|-----|-----|-----|-------------1312|-----------------|-----|-----|-----|
|-----|-----|-----|-----------------|-14--------------|-12--|(12)-|-----|
|-----|-----|-----|-----------------|-----------------|-----|-----|-----|
|-----|-----|-----|-----------------|-----------------|-----|-----|-----|
|-----|-----|-----|-----------------|-----------------|-----|-----|-----|
Note: 1st 3 bars the guitar is silent; not 1 and 3 but 13

 
Bridge

2x Guitar 1
|-5-----5-----5---|-3-----3-----3---|-3-----3-----3---|-3-----3-----3---|
|---6-----------6-|---5-----------5-|---3-----------3-|---3-----------3-|
|-----5-----5-----|-----5-----5-----|-----4-----4-----|-----4-----4-----|
|-----------------|-----------------|-----------------|-----------------|
|-----------------|-----------------|-----------------|-----------------|
|-----------------|-----------------|-----------------|-----------------|


Chorus

4x Guitar 1
|-5-----5-----5---|-3-----3-----3---|-3-----3-----3---|-3-----3-----3---|
|---6-----------6-|---5-----------5-|---3-----------3-|---3-----------3-|
|-----5-----5-----|-----5-----5-----|-----4-----4-----|-----4-----4-----|
|-----------------|-----------------|-----------------|-----------------|
|-----------------|-----------------|-----------------|-----------------|
|-----------------|-----------------|-----------------|-----------------|

4x Guitar 2
|-----------------|-----------------|-----------------|-----------------|
|-----------------|-----------------|-----------------|-----------------|
|-----------------|-5-5-5-5-5-5-5-5-|-----------------|-----------------|
|-3-3-3-3-3-3-3-3-|-5-5-5-5-5-5-5-5-|-5-5-5-5-5-5-5-5-|-5-5-5-5-5-5-5-5-|
|-3-3-3-3-3-3-3-3-|-3-3-3-3-3-3-3-3-|-5-5-5-5-5-5-5-5-|-5-5-5-5-5-5-5-5-|
|-1-1-1-1-1-1-1-1-|-----------------|-3-3-3-3-3-3-3-3-|-3-3-3-3-3-3-3-3-|

2x Guitar 3
|-----|-----|-----|-----------------|-----------------|-----|-----|-----|
|-----|-----|-----|-------------1312|-----------------|-----|-----|-----|
|-----|-----|-----|-----------------|-14--------------|-12--|(12)-|-----|
|-----|-----|-----|-----------------|-----------------|-----|-----|-----|
|-----|-----|-----|-----------------|-----------------|-----|-----|-----|
|-----|-----|-----|-----------------|-----------------|-----|-----|-----|
Note: 1st 3 bars the guitar is silent; not 1 and 3 but 13


Outro

2x Guitar 1                                                    after 2nd time:
|-5-----5-----5---|-3-----3-----3---|-3-----3-----3---|-3-----3-----3---|-5---
|---6-----------6-|---5-----------5-|---3-----------3-|---3-----------3-|-----
|-----5-----5-----|-----5-----5-----|-----4-----4-----|-----4-----4-----|-----
|-----------------|-----------------|-----------------|-----------------|-----
|-----------------|-----------------|-----------------|-----------------|-----
|-----------------|-----------------|-----------------|-----------------|-----

2x Guitar 2                                                    after 2nd time:
|-----------------|-----------------|-----------------|-----------------|-----
|-----------------|-----------------|-----------------|-----------------|-----
|-----------------|-5-5-5-5-5-5-5-5-|-----------------|-----------------|-----
|-3-3-3-3-3-3-3-3-|-5-5-5-5-5-5-5-5-|-5-5-5-5-5-5-5-5-|-5-5-5-5-5-5-5-5-|-3---
|-3-3-3-3-3-3-3-3-|-3-3-3-3-3-3-3-3-|-5-5-5-5-5-5-5-5-|-5-5-5-5-5-5-5-5-|-3---
|-1-1-1-1-1-1-1-1-|-----------------|-3-3-3-3-3-3-3-3-|-3-3-3-3-3-3-3-3-|-1---
2x Guitar 3                                                    after 2nd time:
|-----------------|-----------------|-----------------|-----------------|-----
|-----------------|-----------------|-----------------|-15------13--12--|-10--
|-----------------|-----------------|-----------------|-----------------|-----
|-----------------|-----------------|-----------------|-----------------|-----
|-----------------|-----------------|-----------------|-----------------|-----
|-----------------|-----------------|-----------------|-----------------|-----

Suggest correction
Give kudos to tab author, rate the tab!
1 2 3 4 5
comments
print report bad tab
3 comments total.
0 reply
Type56 93 wrote on May 28 2007, 08:48 am

i wasn't able to tab the outro of guiter 3,
so if anyone was, plz post it here...

0 reply
ritalinkid 92 wrote on June 14 2007, 06:01 pm

it looks good :)

0 reply
I_M_SOLID 10 wrote on June 15 2007, 05:11 pm

nice..........

guest
You may want to rate the tab now too:
select rating
Wanna post a correction for this tab? Suggest correction