Oops, an error
Loading. Please wait.

Wondering Tab

version 2
version 2

Solo

Interactive

17,635 views 21 this week
15 commentsread comments
1 2 3 4 5
accurate
x 22
add to favorites
launch autoscroll
font size
0
reset
how to read this tab
guitar tuner
Tab Pro tools
  • play this tab
  • loop segment
  • change instrument
  • show fretboard
  • metronome
Autoscroll
slow
fast
+/-
esc
set tempo
stop
tabbed by ME
band:good charlotte
song:wondering
album:young and hopeless
standard tuning
\-slide up
/-slide down
~-let ring 

intro guitar 1 
e---------------------------------------------------
B---------------------------------------------------
G---------------------------------------------------
D-----5--------------------------------------------- X 4 (0:00)
A-3-3---------3-------7-------3-0-------------------
E-------0-1-1---0-5-5---0-1-1-----------------------

intro guitar 
e---3-1---1-0---0-----0---------------------------
B-----------------1-3---3-1-----------------------
G-5-----------------------------------------------     (0:17)    
D-5-----3-----7-----------------------------------  X 2 on the 2nd
A-3-----3-----7----------------------------------- time let the 1 ring
E-------1-----5-----------------------------------

verse riff
e-8---10-8-12-8-------------------------------------
B---8-----------------------------------------------
G--------------------------------------------------- X 4 (0:34)
D---------------------------------------------------
A---------------------------------------------------
E---------------------------------------------------

pre-chorus
e---------------------------------------------------
B---------------------------------------------------
G------5---------------5---------77\55\33-----------
D-7----5-x8-3-----7----5-x8-2----77\55\33\22-------- (0:43)
A-7-x8-3----3-x16-7-x8-3----2-x8-55\33\11\22--------
E-5---------1-----5---------0-------------00--------

chorus
e---------------------------------------------------
B---------------------------------------------------
G-5-------------------------------------------------
D-5-x4-3----7----3----5----------------------------- x4 (1:00)
A-3----3-x4-7-x4-3-x2-5-x2--------------------------
E------1----5----1----3-----------------------------

solo
e-5-3-5-3-5-3-5/8/7-7/5-5/3-3-----------------------
B-----------------------------5-5-3-3---------------
G-------------------------------------4-4----------- (2:16)
D-----------------------------------------4---------
A-------------------------------------------2-------
E---------------------------------------------------

bridge
e---------------------------------------------------
B---------------------------------------------------
G---------------------------------------------------
D-33-55-77777777------------------------------------ x 4 (2:24)
A-33-55-77777777------------------------------------
E-11-33-55555555------------------------------------

end on 
e-----
B-----
G-----
D-3---
A-3---
E-1---


order:
intro 1 (0:00)x4
intro 2 (0:17)x2
verse riff (0:34)x4
pre-chorus (0:43)
chorus (0:59)x4
verse riff (1:16)x8
pre-chorus (1:33)
chorus (1:50)x4
intro 2 (2:08)x2
solo (2:16)
bridge (2:24)x4
intro 1 (2:41)x2
pre-chorus (2:49)
chorus (3:01)x4
end (3:19)
comments
print report bad tab
15 comments total. Showing first comments.
0 reply
punkr4life182 wrote on November 23 2002, 12:00 am

hey, I dont have a correction, but there is a part on this tab, that when I play it doesnt sound right at all, its your "intro guitar" part, its awesome up to the 0 1-3 0 3-1 part, that part just doesnt sound right on my guitar, but I havent had time to figure it out yet, I just thought I'd tell ya that tho.

-2 reply
demonchild88 wrote on January 1 2003, 12:00 am

i was watching them play this and i say you must be benji or billy because this tab is dead on, missing a few things but it still sounds perfect:) good charlotte rulz!!



























































g
o
o
d

c
h
a
r
l
o
t
t
e

r
u
l
z
!
!
waist space!!










































ya








































+1 reply
demonchild88 wrote on January 1 2003, 12:00 am

i only have one thing to add, but i don't think that it's right. on the verse it goes
-8--10--8---12-8--8----10-8--7-8
--8-----------------8-----------
there i'm not sure it's right but anyway

I want to post or [tab]
guest
You may want to rate the tab now too:
select rating
Please do not post tabs as comments. Select "correction" instead!