Oops, an error
Loading. Please wait.

Wondering Bass Tab

version 3
version 3

Whole song

Interactive

777 views 1 this week
no commentswrite comment
1 2 3 4 5
please rate
add to favorites
launch autoscroll
font size
0
reset
guitar tuner
Tab Pro tools
  • play this tab
  • loop segment
  • change instrument
  • show fretboard
  • metronome
×
Best way to learn
"Wondering"
Autoscroll
slow
fast
+/-
esc
set tempo
stop
Contributor
Difficulty
novice
Bass Comes in - 00:17
G|-------------------|
D|-------------------|
A|33-3---------------|
E|---11-1-55-5-11-3-1|  x2

Verse1 - 00:25
G|------------------|
D|------------------|
A|33-3--------------|
E|----1-11-55-5-11-1|

G|--------------------|
D|--------------------|
A|33-3----------------|
E|----1-11-55-5-11-3-1|

G|------------------|
D|------------------|
A|33-3--------------|
E|----11-1-55-5-11-1|

G|--------------------|
D|--------------------|
A|33-3----------------|
E|----11-1-55-5-11-3-1|

Pre Chorus - 00:42
G|--------------------------------|
D|--------------------------------|
A|--------33333333----------------|
E|55555555--------1111111111111111|

G|-----------------------------------|
D|-----------------------------------|
A|--------33333333--------5*-3*-1*-0*|
E|55555555--------00000000-----------| *=Mellow sound

Chorus - 00:59
G|--------------------|
D|--------------------|
A|33-3----------------|
E|----11-1-55-5-11-3-1|  x3

G|-----------------|
D|-----------------|
A|33-3-------------|
E|----11-1-55555555|

Verse 2 - 01:16
G|--------------------|
D|--------------------|
A|33-3----------------|
E|----11-1-55-5-11-3-1|  x2

G|------------------|
D|------------------|
A|33-3--------------|
E|----11-1-55-5-11-1|  x2

Pre Chorus - 01:33
G|--------------------------------|
D|--------------------------------|
A|--------33333333----------------|
E|55555555--------1111111111111111|

G|-----------------------------------|
D|-----------------------------------|
A|--------33333333--------5*-3*-2*-1*|
E|55555555--------00000000-----------| *=Mellow sound

Chours - 01:50
G|--------------------|
D|--------------------|
A|33-3----------------|
E|----11-1-55-5-11-3-1|  x3

G|-------------------|
D|-------------------|
A|33-3---------------|
E|----11-1-55-5555555|

Guitar Solo - 02:07
G|--------------------|
D|--------------------|
A|33-3----------------|
E|----11-1-55-5-11-3-1|  x2

Bridge - 02:24
G|-----------------|
D|-----------------|
A|-----------------|
E|1-1--3-3-55555555|  x3

G|--------------------|
D|--------------------|
A|55555555-5*-3*-1*-0*|
E|--------------------|

Bass Pause - 02:41

Ending Chorus - 02:49
G|--------------------|
D|--------------------|
A|33-3----------------|
E|----11-1-55-5-11-3-1|

G|----------------------------|
D|----------------------------|
A|33-3------------------------|
E|----11-1-55-5555555555555555|

G|--------------------|
D|--------------------|
A|33-3----------------|
E|----11-1-55-5-11-3-1|  x3

G|--------------------------------|
D|--------------------------------|
A|33-3----------------------------|
E|----11-1-55-5555555555555555/1*~| *~Mellow sound ring

If you have any questions please email me and please correct if need, but I'm 100%
sure that this is right   peace;)
comments
We did not receive enough feedback on this tab! Please rate:
print report bad tab
1 2 3 4 5
I want to post or [tab]
guest
You may want to rate the tab now too:
select rating
Please do not post tabs as comments. Select "correction" instead!