Oops, an error
Loading. Please wait.

Wondering Tab

version 3
version 3

Interactive

1,601 views 1 this week
12 commentsread comments
1 2 3 4 5
accurate
x 7
add to favorites
launch autoscroll
font size
0
reset
how to read this tab
guitar tuner
Tab Pro tools
  • play this tab
  • loop segment
  • change instrument
  • show fretboard
  • metronome
×
Best way to learn
"Wondering"
Autoscroll
slow
fast
+/-
esc
set tempo
stop
Song:Wondering
Artist:Good Charlotte
Album:The Young and The Hopeless
Tabbed By:Brian Bray
E-mail:brianbrayalltheway@msn.com
2:23pm p.t. 11/23/02

/ = Slide up

I'm sure that 99% of this is completly accurate. 
The only part I know I'm off at is Outro 1 for
the Lead Guitar. E-mail me comments, questions
or requests.

VIEWED BEST IN COURIER NEW 8 PT. FONT

Intro: Rhythm Guitar-Play 4 times (0:00)-(0:16) 
E:-------------------------------------
B:-------------------------------------
G:-------------------------------------
D:-----5-------------------------------
A:-3-3---------3-------7-------3-0-----
e:-------0-1-1---0-5-5---0-1-1---------

Intro: Lead Guitar-Play 1 time (0:08)-(0:16)
E:-------0----0----0----0----0---------
B:-5-5--5555-5555-5555-5555-5555-------
G:-------------------------------------
D:-------------------------------------
A:-------------------------------------
e:-------------------------------------

E:-------------------------------------
B:-55555555----------------------------
G:-------------------------------------
D:-------------------------------------
A:-------------------------------------
e:-------------------------------------

Pre-Verse: Rhythm Guitar-Play 2 times (0:16)-(0:25)
E:-------------------------------------
B:-------------------------------------
G:-5555--------------------------------
D:-5555-3333-7777-33/5-----------------
A:-3333-3333-7777-33/5-----------------
e:------1111-5555-11/3-----------------

Pre-Verse: Lead Guitar-Play 2 times (0:16)-(0:25)
E:---3-1--1-0--0---0-------------------
B:--------------1-3-3-1----------------
G:-55----------------------------------
D:-55---33---77------------------------
A:-33---33---77------------------------
e:------11---55------------------------

Guitars Silent- (0:25)-(0:34)

Verse: Rhythm Guitar-Play 2 times Palm Muted (0:34)-(0:42)
E:-------------------------------------
B:-------------------------------------
G:-55-5--------------------------------
D:-55-5-33-3-77-7-33-3-----------------
A:-33-3-33-3-77-7-33-3-----------------
e:------11-1-55-5-11-1-----------------

Verse: Lead Guitar-Play 2 times (0:34)-(0:42)
E:-8---10-8--12-8---8---10-8-10--8-----
B:---8----------------8----------------
G:-------------------------------------
D:-------------------------------------
A:-------------------------------------
e:-------------------------------------

Pre-Chorus: Rhythm Guitar-Play 1 time (0:42)-(0:59)
E:-------------------------------------
B:-------------------------------------
G:-22222222-55555555-------------------
D:-22222222-55555555-3333333333333333--
A:-00000000-33333333-3333333333333333--
e:-------------------1111111111111111--

E:-------------------------------------
B:-------------------------------------
G:-22222222-55555555-------------------
D:-22222222-55555555-2222222222222222--
A:-00000000-33333333-2222222222222222--
e:-------------------0000000000000000--

Pre-Chorus: Lead Guitar-Play 1 time (0:42)-(0:59)
E:-------------------------------------
B:-------------------------------------
G:-22222222-55555555-------------------
D:-22222222-55555555-3333333333333333--
A:-00000000-33333333-3333333333333333--
e:-------------------1111111111111111--

E:-------------------------------------
B:-------------------------------------
G:-22222222-55555555-----77-55-33------
D:-22222222-55555555-----55-33-11-22---
A:-00000000-33333333-----55-33-11-00---
e:--------------------------------00---

Chorus: Rhythm Guitar & Lead Guitar-Play 1 time (0:59)-(1:16)
E:-------------------------------------
B:-------------------------------------
G:-5555--------------------------------
D:-5555-3333-7777-33/5-----------------
A:-3333-3333-7777-33/5-----------------
e:------1111-5555-11/3-----------------

E:-------------------------------------
B:-------------------------------------
G:-5555--------------------------------
D:-5555-3333-7777-33/5-----------------
A:-3333-3333-7777-33/5-----------------
e:------1111-5555-11/3-----------------

E:-------------------------------------
B:-------------------------------------
G:-5555--------------------------------
D:-5555-3333-7777-33/5-----------------
A:-3333-3333-7777-33/5-----------------
e:------1111-5555-11/3-----------------

E:-------------------------------------
B:-------------------------------------
G:-5555--------------------------------
D:-5555-3333-7777-33333333-------------
A:-3333-3333-7777-33333333-------------
e:------1111-5555-11111111-------------

Verse: Rhythm Guitar-Play 1 time Palm Muted (Except part inside brackets) (1:16)-(1:33)
E:-------------------------------------
B:-------------------------------------
G:-55-5--------------------------------
D:-55-5-33-3-77-7-33-3-----------------
A:-33-3-33-3-77-7-33-3-----------------
e:------11-1-55-5-11-1-----------------

E:-------------------------------------
B:-------------------------------------
G:-55-5--------------------------------
D:-55-5-33-3-77-7-33-3-----------------
A:-33-3-33-3-77-7-33-3-----------------
e:------11-1-55-5-11-1-----------------

E:-------------------------------------
B:-------------------------------------
G:-55-5--------------------------------
D:-55-5-33-3-77-7-33-3-----------------
A:-33-3-33-3-77-7-33-3-----------------
e:------11-1-55-5-11-1-----------------

E:-------------------------------------
B:-------------------------------------
G:-55-5--------------------------------
D:-55-5-33-3-77-7-<3-5-7>--------------
A:-33-3-33-3-77-7-<3-5-7>--------------
e:------11-1-55-5-<1-3-5>--------------

Verse: Lead Guitar-Play 4 times (1:16)-(1:33)
E:-8---10-8--12-8---8---10-8-10--8-----
B:---8----------------8----------------
G:-------------------------------------
D:-------------------------------------
A:-------------------------------------
e:-------------------------------------

Pre-Chorus: Rhythm Guitar-Play 1 time (1:33)-(1:50)
E:-------------------------------------
B:-------------------------------------
G:-22222222-55555555-------------------
D:-22222222-55555555-3333333333333333--
A:-00000000-33333333-3333333333333333--
e:-------------------1111111111111111--

E:-------------------------------------
B:-------------------------------------
G:-22222222-55555555-------------------
D:-22222222-55555555-2222222222222222--
A:-00000000-33333333-2222222222222222--
e:-------------------0000000000000000--

Pre-Chorus: Lead Guitar-Play 1 time (1:33)-(1:50)
E:-------------------------------------
B:-------------------------------------
G:-22222222-55555555-------------------
D:-22222222-55555555-3333333333333333--
A:-00000000-33333333-3333333333333333--
e:-------------------1111111111111111--

E:-------------------------------------
B:-------------------------------------
G:-22222222-55555555-----77-55-33------
D:-22222222-55555555-----55-33-11-22---
A:-00000000-33333333-----55-33-11-00---
e:--------------------------------00---

Chorus: Rhythm Guitar & Lead Guitar-Play 1 time (1:50)-(2:06)
E:-------------------------------------
B:-------------------------------------
G:-5555--------------------------------
D:-5555-3333-7777-33/5-----------------
A:-3333-3333-7777-33/5-----------------
e:------1111-5555-11/3-----------------

E:-------------------------------------
B:-------------------------------------
G:-5555--------------------------------
D:-5555-3333-7777-33/5-----------------
A:-3333-3333-7777-33/5-----------------
e:------1111-5555-11/3-----------------

E:-------------------------------------
B:-------------------------------------
G:-5555--------------------------------
D:-5555-3333-7777-33/5-----------------
A:-3333-3333-7777-33/5-----------------
e:------1111-5555-11/3-----------------

E:-------------------------------------
B:-------------------------------------
G:-5555--------------------------------
D:-5555-3333-7777-33333333-------------
A:-3333-3333-7777-33333333-------------
e:------1111-5555-11111111-------------

Solo: Rhythm Guitar-Play 4 times (2:06)-(2:24)
E:-------------------------------------
B:-------------------------------------
G:-5555--------------------------------
D:-5555-3333-7777-33/5-----------------
A:-3333-3333-7777-33/5-----------------
e:------1111-5555-11/3-----------------

Solo: Lead Guitar-Play 1 time (2:06)-(2:24)
E:---3-1--1-0--0---0-------------------
B:--------------1-3-3-1----------------
G:-55----------------------------------
D:-55---33---77------------------------
A:-33---33---77------------------------
e:------11---55------------------------

E:---3-1--1-0--0---0-------------------
B:--------------1-3-3-1----------------
G:-55----------------------------------
D:-55---33---77------------------------
A:-33---33---77------------------------
e:------11---55------------------------

E:---5-3-5-3-5-3-5-8-7-5-3-------------
B:------------------------5-5-3-3------
G:-55----------------------------4-4---
D:-55-------------------------------4-2
A:-33----------------------------------
e:-------------------------------------

Interlude Part 1: Rhythm & Lead Guitar-Play 3 times (2:24)-(2:36)
E:-------------------------------------
B:-------------------------------------
G:-------------------------------------
D:-3-3--5-5--77777777------------------
A:-3-3--5-5--55555555------------------
e:-1-1--3-3--55555555------------------

Interlude Part 2: Rhythm Guitar-Play 1 time (2:36)-(2:40)
E:-------------------------------------
B:-------------------------------------
G:-------------------------------------
D:-3333333333333333--------------------
A:-3333333333333333--------------------
e:-1111111111111111--------------------

Interude Part 2: Lead Guitar-Play 1 time (2:38)-(2:40)
E:-------------------------------------
B:-------------------------------------
G:-77-55-33----------------------------
D:-55-33-11-22-------------------------
A:-55-33-11-00-------------------------
e:----------00-------------------------

Interlude Part 3: Rhythm Guitar-Play 2 times (2:40)-(2:49) 
E:-------------------------------------
B:-------------------------------------
G:-------------------------------------
D:-----5-------------------------------
A:-3-3---------3-------7-------3-0-----
e:-------0-1-1---0-5-5---0-1-1---------

Outro Part 1: Rhythm Guitar-Play 1 time (2:49)-(3:00)
E:-------------------------------------
B:-------------------------------------
G:-5555--------------------------------
D:-5555-3333-7777-33/5-----------------
A:-3333-3333-7777-33/5-----------------
e:------1111-5555-11/3-----------------

E:-------------------------------------
B:-------------------------------------
G:-5555--------------------------------
D:-5555-3333-7777-3333333333333333-----
A:-3333-3333-7777-3333333333333333-----
e:------1111-5555-1111111111111111-----

Outro Part 1: Lead Guitar-Play 1 time (2:58)-(3:00)
E:-5-3-5-8-7-5-3-5-3-------------------
B:-------------------------------------
G:-------------------------------------
D:-------------------------------------
A:-------------------------------------
e:-------------------------------------

Outro Part 2: Rhythm Guitar-Play 3 times (3:00)-(3:12)
E:-------------------------------------
B:-------------------------------------
G:-5555--------------------------------
D:-5555-3333-7777-33/5-----------------
A:-3333-3333-7777-33/5-----------------
e:------1111-5555-11/3-----------------

Outro Part 2: Lead Guitar- Play 3 times (3:02)-(3:14)
E:-16-14-13---18-16-15-----------------
B:-------------------------------------
G:-------------------------------------
D:-------------------------------------
A:-------------------------------------
e:-------------------------------------

Outro Part 3: Rhythm Guitar-Play 1 time (Let last chord ring until 3:32) (3:12)-(3:19)
E:-------------------------------------
B:-------------------------------------
G:-5555--------------------------------
D:-5555-3333-7777-7777777777777777--3--
A:-3333-3333-7777-7777777777777777--3--
e:------1111-5555-5555555555555555--1--

Outro Part 3: lead Guitar-Play 1 time (Hit last note at 3:23) (3:14)-(3:19)
E:-18-18-16-16-15-15-13-13-12-12-9-9-8-
B:-------------------------------------
G:-------------------------------------
D:-------------------------------------
A:-------------------------------------
e:-------------------------------------

E:-8-----------------------------------
B:-------------------------------------
G:-------------------------------------
D:--------3----------------------------
A:-------------------------------------
e:-------------------------------------
comments
print report bad tab
12 comments total. Showing first comments.
0 reply
demonchild88 wrote on January 1 2003, 12:00 am

this is way off, do you even listen to good charlotte. version one is better. good charlotte rulz!!!!!

0 reply
demonchild88 wrote on January 1 2003, 12:00 am

nm i figured it out, it was a little confusing

0 reply
demonchild88 wrote on January 1 2003, 12:00 am

but i still say version one is dead on

I want to post or [tab]
guest
You may want to rate the tab now too:
select rating
Please do not post tabs as comments. Select "correction" instead!