Oops, an error
Loading. Please wait.

Wondering Tab

version 4
version 4

Interactive

558 views 3 this week
1 commentread comment
1 2 3 4 5
accurate
x 4
add to favorites
launch autoscroll
font size
0
reset
how to read this tab
guitar tuner
Tab Pro tools
  • play this tab
  • loop segment
  • change instrument
  • show fretboard
  • metronome
×
Best way to learn
"Wondering"
Autoscroll
slow
fast
+/-
esc
set tempo
stop
Contributor
-------------------------------------------------------------------------------
                             Wondering - Good Charlotte
-------------------------------------------------------------------------------

Artist: Good Charlotte
Song: Wondering
Albulm: The Young And The Hopeless.
Tabbed by:Zero is great man
Tuning: Standard E: EADGBe

Intro: (Played Clean)
"If you want me to wait, I will wait for you."
e|----------------------------------|
B|----------------------------------|
G|----------------------------------|
D|-----4----------------------------|
A|-2-2----------2--------6------2-0-|
E|-------0-0-0-----0-4-4----0-0-----|

"If you tell me to stay, I will stay right thru."
e|----------------------------------|
B|----------------------------------|
G|----------------------------------|
D|-----4----------------------------|
A|-2-2----------2--------6------2-0-|
E|-------0-0-0-----0-4-4----0-0-----|

"If you don't want to say, anything at all,"
e|----------------------------------|
B|----------------------------------|
G|----------------------------------|
D|-----4----------------------------|
A|-2-2----------2--------6------2-0-|
E|-------0-0-0-----0-4-4----0-0-----|

Guitar 2: (Played with some type of chorus affect and really choppy rhythem)
e|-----------------------------------|
B|-----------------------------------|
G|-4-4--4-4-4--4-4-4--4-4-4--4-4-4-4-|
D|-x-x--x-x-x--x-x-x--x-x-x--x-x-x-x-|(x2)
A|-2-2--2-2-2--2-2-2--2-2-2--2-2-2-2-|
E|-----------------------------------|

"I'm happy wondering..."
e|-----------------------------|
B|-----------------------------|
G|-----------------------------|
D|-----4-----------------------|
A|-2-2----------2--------6-6-6-|(x2)
E|--------0-0-0----0-4-4-------|

Fill:
Guitar 1:(Distorted)
e|-------------------------------------|
B|-------------------------------------|
G|-4-4-4-4-----------------------------|
D|-4-4-4-4--2-2-2-2--6-6-6-6--2-2--4-4-|(x2)
A|-2-2-2-2--2-2-2-2--6-6-6-6--2-2--4-4-|
E|----------0-0-0-0--4-4-4-4--0-0--2-2-|

Guitar 2:(Played with chorus, or flanger)
e|-------------------------------------|
B|-------------------------------------|
G|-------------------------------------|
D|-----4-2------2-1------6---\4-6h-4---|
A|-------------------------7---------7-|(x2)
E|-------------------------------------|

Verse 1:(Bass plays the first 2 lines)
Guitar 1: (Distorted
e|-------------------------------------|
B|-------------------------------------|
G|-4-4-4-4-----------------------------|
D|-4-4-4-4--2-2-2-2--6-6-6-6--2-2--4-4-|
A|-2-2-2-2--2-2-2-2--6-6-6-6--2-2--4-4-|(x2)
E|----------0-0-0-0--4-4-4-4--0-0--2-2-|
 |-----------------p.m.----------------|

Guitar 2:(W/some strage effect)
e|-------------------------------------|
B|-------------------------------------|
G|-4---4---4---4---4---4---4---4---4---|
D|---4---2---6---4---2---6---4---2---6-|(x2)
A|-------------------------------------|
E|-------------------------------------|

Pre-Chorus:(Lightly distorted)
"Cause everybody, whoa, needs someone that they can trust in"
e|---------------------------------------|
B|---------------------------------------|
G|----------------4----------------------|
D|-6--------------4------2-2-2-2-2-2-2-2-|
A|-6--------------2------2-2-2-2-2-2-2-2-|
E|-4---------------------0-0-0-0-0-0-0-0-|

"And your somebody, whoa, That I found just in time......"
e|---------------------------------------|
B|---------------------------------------|
G|----------------4----------------------|
D|-6--------------4------1-1-1-1-1-1-1-1-|
A|-6--------------2------1-1-1-1-1-1-1-1-|
E|-4---------------------0-0-0-0-0-0-0-0-|
Guitar 2(W/some chorus)
e|--------------------------------------------------------|
B|--------------------------------------------------------|
G|----------------------------------------8-8-8-8-8-8-----|
D|----------------------------------------x-x-x-x-x-x-7-7-|
A|----------------------------------------6-6-4-4-2-2-x-x-|
E|----------------------------------------------------5-5-|

Chorus:
"If you want me to wait, I'll wait for you."
e|-------------------------------------|
B|-------------------------------------|
G|-4-4-4-4-----------------------------|
D|-4-4-4-4--2-2-2-2--6-6-6-6--2-2--4-4-|
A|-2-2-2-2--2-2-2-2--6-6-6-6--2-2--4-4-|
E|----------0-0-0-0--4-4-4-4--0-0--2-2-|

"If you tell me to stay, I will stay right thru"
e|-------------------------------------|
B|-------------------------------------|
G|-4-4-4-4-----------------------------|
D|-4-4-4-4--2-2-2-2--6-6-6-6--2-2--4-4-|
A|-2-2-2-2--2-2-2-2--6-6-6-6--2-2--4-4-|
E|----------0-0-0-0--4-4-4-4--0-0--2-2-|

"If you don't want to say, anything at all"
e|-------------------------------------|
B|-------------------------------------|
G|-4-4-4-4-----------------------------|
D|-4-4-4-4--2-2-2-2--6-6-6-6--2-2--4-4-|
A|-2-2-2-2--2-2-2-2--6-6-6-6--2-2--4-4-|
E|----------0-0-0-0--4-4-4-4--0-0--2-2-|

"I'm happy wondering...."
e|-----------------------------------|
B|-----------------------------------|
G|-4-4-4-4---------------------------|
D|-4-4-4-4--2-2-2-2--1-1-1-1-1-1-1-1-|
A|-2-2-2-2--2-2-2-2--1-1-1-1-1-1-1-1-|
E|----------0-0-0-0--0-0-0-0-0-0-0-0-|

Verse 2:
Guitar 1: (Distorted
e|-------------------------------------|
B|-------------------------------------|
G|-4-4-4-4-----------------------------|
D|-4-4-4-4--2-2-2-2--6-6-6-6--2-2--4-4-|
A|-2-2-2-2--2-2-2-2--6-6-6-6--2-2--4-4-|(x4)
E|----------0-0-0-0--4-4-4-4--0-0--2-2-|
 |-----------------p.m.----------------|

Guitar 2:(W/some strage effect)
e|-------------------------------------|
B|-------------------------------------|
G|-4---4---4---4---4---4---4---4---4---|
D|---4---2---6---4---2---6---4---2---6-|(x4)
A|-------------------------------------|
E|-------------------------------------|

[Pre-Chorus]

[Chorus]

Fill 2:
Guitar 1:(Distorted)
e|-------------------------------------|
B|-------------------------------------|
G|-4-4-4-4-----------------------------|
D|-4-4-4-4--2-2-2-2--6-6-6-6--2-2--4-4-|(x2)
A|-2-2-2-2--2-2-2-2--6-6-6-6--2-2--4-4-|
E|----------0-0-0-0--4-4-4-4--0-0--2-2-|

Guitar 2:(Played with chorus, or flanger)
e|-------------------------------------|
B|-------------------------------------|
G|-------------------------------------|
D|-----4-2------2-1------6---\4-6h-4---|(First time)
A|-------------------------7---------7-|
E|-------------------------------------|

Guitar 2:(Played with chorus, or flanger)
e|---------------------------------------|
B|---------------------------------------|
G|---------------------------------------|
D|-----4-2------2-1------6---\4b-(6)-4---|
A|-------------------------7-----------7-|
E|---------------------------------------|

Solo:
e|-------------------------------------|
B|-------------------------------------|
G|-4-4-4-4-----------------------------|
D|-4-4-4-4--2-2-2-2--6-6-6-6--2-2--4-4-|(x2)
A|-2-2-2-2--2-2-2-2--6-6-6-6--2-2--4-4-|
E|----------0-0-0-0--4-4-4-4--0-0--2-2-|


Guitar 2:(W/Some type of chorus effect)
e|--------------------------------------------------|
B|--------------------------------------------------|
G|----------------------------4-3-------------------|
D|-6-4----6-4----6-4----6-4-6-----6-4-(5)-4-2-2-0-0-|
A|-----4------4------4------------------------------|
E|--------------------------------------------------|

Bridge:
"Don't tell me, the bad news"
e|-----------4-4-4-4-|
B|-----------6-6-6-6-|
G|-----------5-5-5-5-|
D|-2-2--4-4--6-6-6-6-|
A|-2-2--4-4--6-6-6-6-|
E|-0-0--2-2--4-4-4-4-|

"Don't Tell me anything at all"
e|-----------4-4-4-4-|
B|-----------6-6-6-6-|
G|-----------5-5-5-5-|
D|-2-2--4-4--6-6-6-6-|
A|-2-2--4-4--6-6-6-6-|
E|-0-0--2-2--4-4-4-4-|

"Just tell me, That you need me"
e|-----------4-4-4-4-|
B|-----------6-6-6-6-|
G|-----------5-5-5-5-|
D|-2-2--4-4--6-6-6-6-|
A|-2-2--4-4--6-6-6-6-|
E|-0-0--2-2--4-4-4-4-|

"And stay right here with me..."
e|-----------------|
B|-----------------|
G|-----------------|
D|-1-1-1-1-1-1-1-1-|
A|-1-1-1-1-1-1-1-1-|
E|-0-0-0-0-0-0-0-0-|

Guitar 2:
e|----------------------------------|
B|----------------------------------|
G|------------------8-8-6-6-4-4-----|
D|------------------x-x-x-x-x-x-7-7-|
A|------------------6-6-4-4-2-2-x-x-|
E|------------------------------5-5-|

Final Chorus:(Played clean)
"If you want me to wait, I will wait for you"
e|----------------------------------|
B|----------------------------------|
G|----------------------------------|
D|-----4----------------------------|
A|-2-2----------2--------6------2-0-|
E|-------0-0-0-----0-4-4----0-0-----|
"If you want me to stay, I will stay right thru"
e|----------------------------------|
B|----------------------------------|
G|----------------------------------|
D|-----4----------------------------|
A|-2-2----------2--------6------2-0-|
E|-------0-0-0-----0-4-4----0-0-----|

"If you don't want to say, anything at all"(Distorted)
e|-------------------------------------|
B|-------------------------------------|
G|-4-4-4-4-----------------------------|
D|-4-4-4-4--2-2-2-2--6-6-6-6--2-2--4-4-|
A|-2-2-2-2--2-2-2-2--6-6-6-6--2-2--4-4-|
E|----------0-0-0-0--4-4-4-4--0-0--2-2-|

"I'm happy wondering...."
e|-----------------------------------|
B|-----------------------------------|
G|-4-4-4-4---------------------------|
D|-4-4-4-4--2-2-2-2--1-1-1-1-1-1-1-1-|
A|-2-2-2-2--2-2-2-2--1-1-1-1-1-1-1-1-|
E|----------0-0-0-0--0-0-0-0-0-0-0-0-|

Outro:
Guitar 2(Chorus)
e|-------------7-----|
B|-----4---------7---|
G|-4-6---6-4-6-----4-|
D|-------------------|
A|-------------------|
E|-------------------|
(Chorus + Wah)
e|-7------------|
B|---7----7-4-3-|
G|-----4--------|
D|--------------|(x3)
A|--------------|
E|--------------|

"I'm happy wondering..."( Chorus)
e|-11-11-9-9-7-7-5-5----|
B|----------------------|
G|----------------------|
D|----------------------|
A|-------------------2~-|
E|----------------------|

| (*) Bend to the tone of that* note
| p.m palm mute
| b  bend note
| /  slide up
| \  slide down
| h  hammer-on
| p  pull-off
| ~  vibrato
| +  harmonic
| x  Mute note

===============================================================================
comments
print report bad tab
1 comment total.
0 reply
shadodecoration wrote on September 20 2007, 07:05 pm

Im not sure that any of this is correct... =[

I want to post or [tab]
guest
You may want to rate the tab now too:
select rating
Please do not post tabs as comments. Select "correction" instead!