Oops, an error
Loading. Please wait.

World Is Black Bass Tab

2,532 views 3 this week
no commentswrite comment
1 2 3 4 5
x 3
add to favorites
launch autoscroll
font size
0
reset
guitar tuner
Autoscroll
slow
fast
+/-
esc
set tempo
stop
Help us to improve Ultimate-Guitar.com Take our survey!
×
Author
----------------------------------------------------------------------------
			     World is black - Good Charlotte
----------------------------------------------------------------------------

Tabbed By : jordan 
e-mail: jordangrainger@hotmail.co.uk

Tuning: standard



Intro:

G|----------|
D|----------|
A|-66-00-11-|
E|----------|

   Verse:

G|------------------------------------------------------------------------|
D|------------------------------------------------------------------------| 
A|-4-4-44-4-6-6-66-6----------6-6-66-6-4-4-44-4-6-6-66-6------------------|
E|-------------------1-1-11-1----------------------------111111111111111--|

    Pre-Chorus:

G|-------------------------------------------------------------------------|
D|-------------------------------------------------------------------------|
A|---------6~~~~~~--1~~~~~~~-4~~~~~~~~------------6~~~~~~~~~~-444444444----|
E|-4~~~~~------------------------------1~~~~~~~~~--------------------------|

   Chorus:

G|-------------------------------------------------------------------------|
D|-------------------------------------------------------------------------|
A|-----------------------------------6-666-666-666-66-1-111-111-111-11-----|
E|-1-111-111-111-11-4-444-444-444-44---------------------------------------|

G|-------------------------------------------------------------------------|
D|-------------------------------------------------------------------------|
A|-----------------------------------6-666-666-666-66-44444444444444444----|
E|-1-111-111-111-11-4-444-444-444-44---------------------------------------|

   Bridge:

G|-------------------------------------------------------------------------|
D|-------------------------------------------------------------------------|
A|-----------6-6-66-66-1-1-11-11-4-4-44-44-----------6-6-66-66-44444444444-|
E|-4-4-44-44-------------------------------1-1-11-11-----------------------|

   Final Chorus:

G|-------------------------------------------------------------------------|
D|-------------------------------------------------------------------------|
A|-------------6~~~-1~~~-----------------------------------6-666-666-666-66|
E|-1~~~-4~~~-------------1-111-111-111-11-4-444-444-444-44-----------------|

G|-------------------------------------------------------------------------|
D|-------------------------------------------------------------------------|
A|-4444444444444444444444444444444444444444--------------------------------|
E|-------------------------------------------------------------------------|

    Final Verse:

G|-------------------------------------------------------------------------|
D|-------------------------------------------------------------------------|
A|-4-4-44-4-6-6-66-6----------6-6-66-6-4-4-44-4-6-6-66-6-------------------|
E|-------------------1-1-11-1----------------------------1~~~~~~~~---------|



    Song Structure:

   Intro x1
   Verse x2
   pre-chorus x1
   chorus x1
   verse x2
   pre-chorus x1
   chorus x1
   Bridge x2
   Final chorus x1
   final verse x1

    thats it please rate



Suggest correction
Give kudos to tab author, rate the tab!
1 2 3 4 5
comments
print report bad tab
guest
You may want to rate the tab now too:
select rating
Wanna post a correction for this tab? Suggest correction