Oops, an error
Loading. Please wait.

Stars Were Exploding Bass Tab

464 views 1 this week
no commentswrite comment
1 2 3 4 5
3 more votes to show rating
add to favorites
launch autoscroll
font size
0
reset
guitar tuner
Autoscroll
slow
fast
+/-
esc
set tempo
stop
Help us to improve Ultimate-Guitar.com Take our survey!
×
-----------------------------------------------------------------------------
			     Stars Were Exploding - Good Luck
-----------------------------------------------------------------------------

Tabbed By : DamienDaBassist

Tuning: EADG

| /  slide up
| \  slide down
| h  hammer-on
| p  pull-off
| ~  vibrato

Intro (0:11)
G|----------------------------------------------------------|
D|--------11---11-9---9-------------------------------------|
A|--9---9---------------9---9-------------------------------|
E|----------------------------9/11---11-4---4-7---7-9--9-9--|x1

G|----11---10---------------------------------------|
D|--------------9-----------------------------------|
A|------------------9-------------------------------|
E|----------------------9/11---8---7---1------------| x3

Verse 1(0:44)
G|----------------------------------------------------------|
D|--------11---11-9---9-------------------------------------|
A|--9---9---------------9---9-------------------------------|
E|----------------------------9/11---11-4---4-7---7-9--9-9--|

Verse 2(1:17)
G|---------------------------------------------------------------------|
D|----------------11--11-11--11-11-11--9--9-9--9-9-11------------------|
A|-9--9-9--9-9-9---------------------------------------9--9-9--9-9-11--|
E|---------------------------------------------------------------------|

G|-------------------------------------------------------------------|
D|-------------------------------------------------------------------|
A|-------------------------------------------------------------------|
E|-11--11-11--11-11-11--4--4-4--4-4-4--7--7-7--7-7-7--9--9-9--9-9-9--|
Suggest correction
Give kudos to tab author, rate the tab!
1 2 3 4 5
comments
print report bad tab
guest
You may want to rate the tab now too:
select rating
Wanna post a correction for this tab? Suggest correction