Oops, an error
Loading. Please wait.

Stars Were Exploding Tab

version 2
version 2

Whole song

2,675 views 1 this week
1 commentread comment
1 2 3 4 5
please rate
add to favorites
launch autoscroll
font size
0
reset
how to read this tab
guitar tuner
Autoscroll
slow
fast
+/-
esc
set tempo
stop
Help us to improve Ultimate-Guitar.com Take our survey!
×
Author
Artist: Good Luck
Song: Stars Were Exploding / Bringing Them Back to Life
Tabbed by: LookLookJamie
Email: LookLookJamie@Hellokitty.com

THIS IS VERY SIMILAR TO THE OTHER VERSION ALREADY ON HERE.  I made a few changes because
few parts did not sound correct to me.  Also, some parts of the solo may be easier to
on other strings, but since I'm tabbing this out with an acoustic guitar, I can't go as 
up on the fretboard.

This should be 100% correct though, please comment if it's not!

Intro/Main part
e|---------------------------------------------------|
B|---------------------------------------------------|
G|---------88----------------6--6--------------------|
D|88-11-11-99-11-11-88----44-6--6--------------------|
A|99--8-8------8--8-66-66-66-8--8--------------------|
E|---------------------88----------------------------|


Solo
e|-----------------------------9------------------------------------------|
B|--11-11-11-9--------------11---11-9-------------9---9- --------9-h11-p9-|
G|----------------11-11-11------------11-11-11-11---8---11-8-11-----------|
D|-------------11---------------------------------------------------------|
A|------------------------------------------------------------------------|
E|------------------------------------------------------------------------|

e|-------------9---------------9-14-13-11-11-11-11------------------------------|
B|--11-11-11-9---9----------11---------------------11-9-9-----------------------|
G|-----------------11-11-11-------------------------------11-8-11-10/11\10------|
D|------------------------------------------------------------------------------|
A|------------------------------------------------------------------------------|
E|------------------------------------------------------------------------------|
Suggest correction
Give kudos to tab author, rate the tab!
1 2 3 4 5
comments
print report bad tab
1 comment total.
0 reply
seanhcolvin 10 wrote on April 3 2016, 05:45 pm

The Into actually goes like this.
e|----------------------------------------------|
B|----------------------------------------------|
G|----------8-8---------------------------------|
D|8-8-11-11-9-9-11-11-88-66-99-11-11------------|
A|9-9--8--8------9--9-66-xx-66--8--8------------|
E|-----------------------88---------------------|

guest
You may want to rate the tab now too:
select rating
Wanna post a correction for this tab? Suggest correction