Oops, an error
Loading. Please wait.

To Be Won Tab

version 2
version 2

Whole song

  • This version is more complete and much easier, yet still accurate to the song.
181 views 9 this week
no commentswrite comment
1 2 3 4 5
2 more votes to show rating
add to favorites
launch autoscroll
font size
0
reset
how to read this tab
guitar tuner
×
Best way to learn
"To Be Won"
Autoscroll
slow
fast
+/-
esc
set tempo
stop
Author
Difficulty
  follow
novice
About this tab version
This version is more complete and much easier, yet still accurate to the song. Was this info helpful? Yes No
-------------------------------------------------------------------------------
                             TO BE WON - GOOD MORNING
-------------------------------------------------------------------------------
Tabbed by: Noah Moody
Email: Noahmoody1228@gmail.com

TUNING E♭,A,D,G,B,e

[Intro] (0:00-0:09)
e |--------------------|
B |--------------------|
G |--------------------|(X2)
D |-----3-----3--------|
A |---4-----4---4------|
E♭|-5-----5-------5-3--|

(0:12-0:22)
e |----------------------------------------------------------------|
B |----------------------------------------------------------------|
G |----------------------------------------------------------------|
D |-----3-----3---------3-------3-------3-----3-------3-------3----|
A |---4-----4---4-----4-------4-------4-----4-------4-------4------|
E♭|-5-----5-------5-0-----0-3-----5-3-----3-----3-5-----5-3-----3--|

[Verse](0:22-0:32)
e |--------------------|
B |--------------------|
G |--------------------|(X2)
D |-----3-----3--------|
A |---4-----4---4------|
E♭|-5-----5-------5-3--|

[Chorus] (0:33-0:43)
e |----------------------------------------------------------------|
B |----------------------------------------------------------------|
G |----------------------------------------------------------------|
D |-----3-----3---------3-------3-------3-----3-------3-------3----|
A |---4-----4---4-----4-------4-------4-----4-------4-------4------|
E♭|-5-----5-------5-0-----0-3-----5-3-----3-----3-5-----5-3-----3--|

[Verse](0:43-0:53)
e |--------------------|
B |--------------------|
G |--------------------|(X2)
D |-----3-----3--------|
A |---4-----4---4------|
E♭|-5-----5-------5-3--|

[Chorus] (0:55-1:05)
e |----------------------------------------------------------------|
B |----------------------------------------------------------------|
G |----------------------------------------------------------------|
D |-----3-----3---------3-------3-------3-----3-------3-------3----|
A |---4-----4---4-----4-------4-------4-----4-------4-------4------|
E♭|-5-----5-------5-0-----0-3-----5-3-----3-----3-5-----5-3-----3--|

[Bridge](1:05-1:15)
e |-------------------------------|
B |-------------------------------|
G |-------------------------------|(X2)
D |-----3-----3------------4-3----|
A |---4-----4---4--------------4--|
E♭|-5-----5-------5-3----3--------|

(1:15-1:25)
e |----------------------------------------------------------------|
B |----------------------------------------------------------------|
G |----------------------------------------------------------------|
D |-----3-----3---------3-------3-------3-----3-------3-------3----|
A |---4-----4---4-----4-------4-------4-----4-------4-------4------|
E♭|-5-----5-------5-0-----0-3-----5-3-----3-----3-5-----5-3-----3--|

(1:25-1:29)
e |--------------------|
B |--------------------|
G |--------------------|
D |-----3-----3--------|
A |---4-----4---4------|
E♭|-5-----5-------5-3--|

(1:30-1:36)
e |----------------------------------|
B |----------------------------------|
G |----------------------------------|
D |-----3-----3---------3-----3------|
A |---4-----4-----4---4-----4---4----|
E♭|-5-----5-----5---3-----3-------3--|

(1:36-1:46)
e |----------------------------------------------------------------|
B |----------------------------------------------------------------|
G |----------------------------------------------------------------|
D |-----3-----3---------3-------3-------3-----3-------3-------3----|
A |---4-----4---4-----4-------4-------4-----4-------4-------4------|
E♭|-5-----5-------5-0-----0-3-----5-3-----3-----3-5-----5-3-----3--|

[Verse] (1:46-1:54)
e |--------------------|
B |--------------------|
G |--------------------|(X2)
D |-----3-----3--------|
A |---4-----4---4------|
E♭|-5-----5-------5-3--|

[Chorus] (1:57-2:17)
e |----------------------------------------------------------------|
B |----------------------------------------------------------------|
G |----------------------------------------------------------------|(X2)
D |-----3-----3---------3-------3-------3-----3-------3-------3----|
A |---4-----4---4-----4-------4-------4-----4-------4-------4------|
E♭|-5-----5-------5-0-----0-3-----5-3-----3-----3-5-----5-3-----3--|


[Outro] (2:17-2:26)
e |--------------------|
B |--------------------|
G |--------------------|(X2)
D |-----3-----3--------|
A |---4-----4---4------|
E♭|-5-----5-------5-3--|

(2:29-2:39)
e |-------------------------------------------------------------------|
B |-------------------------------------------------------------------|
G |-------------------------------------------------------------------|
D |-----3-----3---------3-------3-------3-----3-------3-------3-------|
A |---4-----4---4-----4-------4-------4-----4-------4-------4---------|
E♭|-5-----5-------5-0-----0-3-----5-3-----3-----3-5-----5-3-----3--5--|
Suggest correction
Give kudos to tab author, rate the tab!
1 2 3 4 5
comments
print report bad tab
guest
You may want to rate the tab now too:
select rating
Wanna post a correction for this tab? Suggest correction