Oops, an error
Loading. Please wait.

Warned You Tab

409 views 93 this week
no commentswrite comment
1 2 3 4 5
x 3
add to favorites
launch autoscroll
font size
0
reset
how to read this tab
guitar tuner
Autoscroll
slow
fast
+/-
esc
set tempo
stop
Help us to improve Ultimate-Guitar.com Take our survey!
×
Author
Difficulty
novice
Title: Warned You
Band: Good Morning
Album: Shawcross
Tuning: Standard
Tabbing by: Sean Konagaya


 (0:01)        (0:21)                   
e|---2-----2---|---6-----5-----4-----4---|
B|---4-----2---|---6-----5-----4-----6---|
G|---3-----3---|---6-----5-----4-----4---| 
D|---4-----4---|---6-----5-----4-----6---|
A|---2-----4---|---8-----7-----6-----4---|
E|---x-----2---|---6-----5-----4-----4---|
 B#maj7  F#      Bbm7  Am7   G#m7   G#m 


 (0:30)           (0:43)        (0:57)        (1:12)                    
e|---4-----4------|---2-----2---|---0-----2---|---6-----5-----4-----4---|
B|---4-----6/7\6--|---4-----2---|---0-----4---|---6-----5-----4-----6---|
G|---4-----4------|---3-----3---|---1-----3---|---6-----5-----4-----4---|
D|---4-----6------|---4-----4---|---2-----4---|---6-----5-----4-----6---|
A|---6-----4------|---2-----4---|---2-----2---|---8-----7-----6-----4---|
E|---4-----4------|---x-----2---|---0-----2---|---6-----5-----4-----4---|
  G#m7   G#m       B#maj7  F#      E  B#maj7   G#m7   G#m   G#m7   G#m 


 (1:20)            (1:34)        (1:47)
e|---4-----4-------|---2-----2---|---2-----2---|
B|---4-----6/7\6---|---4-----2---|---4-----2---|
G|---4-----4-------|---3-----3---|---3-----3---|
D|---4-----6-------|---4-----4---|---4-----4---|
A|---6-----4-------|---2-----4---|---2-----4---|
E|---4-----4-------|---x-----2---|---x-----2---|
  G#m7   G#m       B#maj7  F#      E  B#maj7



************************************

| x  Dead note
| /  Slide up
| \  Slide down

************************************
Suggest correction
Give kudos to tab author, rate the tab!
1 2 3 4 5
comments
print report bad tab
guest
You may want to rate the tab now too:
select rating
Wanna post a correction for this tab? Suggest correction