Oops, an error
Loading. Please wait.

Decoy Tab

7 views 1 this week
no commentswrite comment
1 2 3 4 5
3 more votes to show rating
add to favorites
launch autoscroll
font size
0
reset
how to read this tab
guitar tuner
Autoscroll
slow
fast
+/-
esc
set tempo
stop
Help us to improve Ultimate-Guitar.com Take our survey!
×
Author
Difficulty
intermediate
Guitarist: Luke Pabich
Tuning: EADGBe

Certain parts of the song have a random strumming pattern which I want you to work out
on your own to practice a bit, for those I'll just leave the chords you use and tag
them with a #

Just a hint, he mostly strums in triplets, although he does do straight up and down
strokes from time to time

--------------------------------------------------------------------------------------------


[Intro]

e|---------------------------|
B|---------------------------|
G|----------------6----------|
D|--6-6-6-6-6--3--6----------|
A|--6-6-6-6-6--3--4----------|
E|--4-4-4-4-4--1-------------|

e|--------------------------------------------------|
B|--------------------------------------------------|
G|--------------6#----------10#--6#----8------------|
D|--6#--3#--4#--6-------6#--10---6-----8------------|
A|--6---3---4---4-------6---8----4-----6------------|
E|--4---1---2-----------4---------------------------|


[Riff/solo:]

e|---------------------------------------|
B|---------------------------------------|
G|---------------------------------------|
D|---6--------4--6--------9----11--------|
A|---------------------------------------|
E|---------------------------------------|

e|-----------------------------------------------------------------------|
B|-----------------------------------------------------------------------|
G|-9-9-8-8-9-9-8-9--9-8-8-9-9-8-8-9-9-8-8-9-9-8-8-11-11-9-9-8-8-8-8------|
D|-----------------------------------------------------------------------|
A|-----------------------------------------------------------------------|
E|-----------------------------------------------------------------------|

continued 

e|-----------------------------------------------------------------------|
B|-----------------------------------------------------------------------|
G|-9-9-8-8-9-9-8-9--9-8-8-9-9-8-8-9-9-8-8-9-9-8-8--10^-------------------|
D|-----------------------------------------------------------------------|
A|-----------------------------------------------------------------------|
E|-----------------------------------------------------------------------|

[Verse]

e|-------------------------------------------------------------|
B|-------------------------------------------------------------|
G|-----------6#--8#---------10#--6#--8#---/--------------------|
D|---6#--3#--6---8------6#--10---6---8----/--3-4---------------|
A|---6---3---4---6------6---8----4---6----/--3-4---------------|
E|---4---1--------------4-----------------/--1-2---------------|

Those last 2 chords (F, F#) are only played so often, you can figure out where they fit though
since its not really consistent


Palm muted verse:

e|---------------------------------------------------------------------------|
B|---------------------------------------------------------------------------|
G|-----------------------------------6--6-6-6-6-6-6--8--8-8-8-8-8-8----------|
D|---6--6-6-6-6-6-6--3--3-3-3-3-3-3--6--6-6-6-6-6-6--8--8-8-8-8-8-8----------|
A|---6--6-6-6-6-6-6--3--3-3-3-3-3-3--4--4-4-4-4-4-4--6--6-6-6-6-6-6----------|
E|---4--4-4-4-4-4-4--1--1-1-1-1-1-1------------------------------------------|
        * * *   * *     * * *   * *     * * *   * *     * * *   * *

continued

e|---------------------------------------------------------------------------|
B|---------------------------------------------------------------------------|
G|-------------------10--10-10-10-10-10-10--6--6-6-6-6-6-6--8--8-8-8-8-8-8---|
D|---6--6-6-6-6-6-6--10--10-10-10-10-10-10--6--6-6-6-6-6-6--8--8-8-8-8-8-8---|
A|---6--6-6-6-6-6-6--8---8--8--8--8--8--8---4--4-4-4-4-4-4--6--6-6-6-6-6-6---|
E|---4--4-4-4-4-4-4----------------------------------------------------------|
        * * *   * *      *  *  *     *  *      * * *   * *     * * *   * *

alternatively, you could just pick slide the last chord, it's up to you

[Bridge]

just same single strummed chords

e|-----------------------------------------------|
B|-----------------------------------------------|
G|-----------6---8-------10---6---8--------------|
D|---6---3---6---8---6---10---6---8--------------|
A|---6---3---4---6---6---8----4---6--------------|
E|---4---1-----------4---------------------------|


[Ending:]

e|--------------------------------------------|
B|--------------------------------------------|
G|---6----8-----------------------------------|
D|---6----8----6---------6--------------------|
A|---4----6----6---------6--------------------|
E|-------------4---------4--------------------|

************************************


Intro      x1
solo/riff  x1
verse      x2
p/m verse  X1
verse      x1
solo/riff  x1
verse      x2
p/m verse  x1
verse      x1
bridge     x1
p/m verse  x1
verse      x1 (ends differently because of the ending)
ending     x1



************************************

# strum
* palm mute
^ full bend

************************************
Suggest correction
Give kudos to tab author, rate the tab!
1 2 3 4 5
comments
print report bad tab
guest
You may want to rate the tab now too:
select rating
Wanna post a correction for this tab? Suggest correction