Oops, an error
Loading. Please wait.

Snake Oil tab

version 1
version 1

Whole song

Interactive

1,528 views 12 this week
no commentswrite comment
1 2 3 4 5
2 more votes to show rating
add to favorites
×
Save as Personal and add changes to this tab that will be seen only by you. Learn more ›
×
You can save this tab as Personal to edit and correct it or add notes. All changes will be seen only by you. Learn more »
launch autoscroll
font size
0
reset
how to read this tab
guitar tuner
edit
Autoscroll
slow
fast
+/-
esc
set tempo
stop
Author
Tabbed by: Joshua Garcia (joshuag523@aol.com)

Tabs for the song: Snake Oil by Good Tiger
Please rate and let me know if you have any corrections. Thank you.


To view my guitar cover of this song, go here:
https://www.youtube.com/watch?v=qK14XdRc7F0


Tuning: Drop D (D A D G B E)


Intro
Guitar 1/2:
E||------------------------------------|------------------------------------|
B||--------5------------------0-----0--|--------5------------------0-----0--|
G||--------4--4h5p0-4p3-0-0-0-----0----|--------4--4h5p0-4p3-0-0-0-----0----|
D||--2---2----------------------4------|--2---2----------------------4------|
A||--2---2-----------------------------|--2---2-----------------------------|
D||--2---2-----------------------------|--2---2-----------------------------|


E||------------------------------------|---------------------0-----0--------|
B||--------5------------------0-----0--|-----------5\3-0---0-----0----------|
G||--------4--4h5p0-4p3-0-0-0-----0----|-----------------3-----2------------|
D||--2---2----------------------4------|--0---0-0--------------------3-3-3--|
A||--2---2-----------------------------|--0---0-0--------------------3-3-3--|
D||--2---2-----------------------------|--0---0-0--------------------3-3-3--|
                                              . .                    . . .

E||------------------------------------|------------------------------------|
B||--------5------------------0-----0--|--------5------------------0-----0--|
G||--------4--4h5p0-4p3-0-0-0-----0----|--------4--4h5p0-4p3-0-0-0-----0----|
D||--2---2----------------------4------|--2---2----------------------4------|
A||--2---2-----------------------------|--2---2-----------------------------|
D||--2---2-----------------------------|--2---2-----------------------------|


E||------------------------------------|-------------------0----------------|
B||--------5------------------0-----0--|-----------5\3-0-3------/7-5-0------|
G||--------4--4h5p0-4p3-0-0-0-----0----|------------------------------------|
D||--2---2----------------------4------|--0---0-0----------------------3-3--|
A||--2---2-----------------------------|--0---0-0----------------------3-3--|
D||--2---2-----------------------------|--0---0-0----------------------3-3--|
                                              . .                      . .


Pre-Chorus
Guitar 1/2:
E||--3---3-3-3-3-5-5-5-5-3-3-3-3-3-3-7---7-7-7-7-7-7-7-7-5-5-5-5-5-5--|
B||--x---x-x-x-x-x-x-x-x-x-x-x-x-x-x-0---0-0-0-0-0-0-0-0-0-0-0-0-0-0--|
G||--4---4-4-4-4-4-4-4-4-4-4-4-4-4-4-x---x-x-x-x-x-x-x-x-x-x-x-x-x-x--|
D||--3---3-3-3-3-3-3-3-3-3-3-3-3-3-3-7---7-7-7-7-7-7-7-7-7-7-7-7-7-7--|
A||-------------------------------------------------------------------|
D||-------------------------------------------------------------------|


E||------------------------------------|------------------------------------|
B||--------5------------------0-----0--|--------5------------------0-----0--|
G||--------4--4h5p0-4p3-0-0-0-----0----|--------4--4h5p0-4p3-0-0-0-----0----|
D||--2---2----------------------4------|--2---2----------------------4------|
A||--2---2-----------------------------|--2---2-----------------------------|
D||--2---2-----------------------------|--2---2-----------------------------|


E||--3---3-3-3-3-5-5-5-5-3-3-3-3-3-3-7---7-7-7-7-7-7-7-7-5-5-5-5-5-5--|
B||--x---x-x-x-x-x-x-x-x-x-x-x-x-x-x-0---0-0-0-0-0-0-0-0-0-0-0-0-0-0--|
G||--4---4-4-4-4-4-4-4-4-4-4-4-4-4-4-x---x-x-x-x-x-x-x-x-x-x-x-x-x-x--|
D||--3---3-3-3-3-3-3-3-3-3-3-3-3-3-3-7---7-7-7-7-7-7-7-7-7-7-7-7-7-7--| x2
A||-------------------------------------------------------------------|
D||-------------------------------------------------------------------|



Chorus
Guitar 1/2:
E||----------------------------------------------------------------------|
B||--3---5-5-5-5-5-5-5-5-5-5-5-5-5-5-8---8-8-8-8-8-8-8-8/11-11-11-11-11--|
G||--x---x-x-x-x-x-x-x-x-x-x-x-x-x-x-9---9-9-9-9-9-9-9-9/12-12-12-12-12--|
D||--4---4-4-4-4-4-4-4-4-4-4-4-4-4-4-x---x-x-x-x-x-x-x-x/x--x--x--x--x---| x3
A||--3---3-3-3-3-3-3-3-3-3-3-3-3-3-3-7---7-7-7-7-7-7-7-7/10-10-10-10-10--|
D||----------------------------------------------------------------------|


E||-----------------------------------------------------------------------|
B||--3---5-5-5-5-5-5-5-5-5-5-5-5-5-5-8---8-8-8-8-8-8/11-11---11---11-11\--|
G||--x---x-x-x-x-x-x-x-x-x-x-x-x-x-x-9---9-9-9-9-9-9/12-12---12---12-12\--|
D||--4---4-4-4-4-4-4-4-4-4-4-4-4-4-4-x---x-x-x-x-x-x/x--x----x----x--x-\--|
A||--3---3-3-3-3-3-3-3-3-3-3-3-3-3-3-7---7-7-7-7-7-7/10-10---10---10-10\--|
D||-----------------------------------------------------------------------|



Verse
Guitar 1/2:
E||------------------------------------|------------------------------------|
B||--5------------------------0-----0--|---------------------------0-----0--|
G||--4--------4h5p0-4p3-0-0-0-----0----|-----------4h5p0-4p3-0-0-0-----0----|
D||-----------------------------4------|-----------------------------4------|
A||------------------------------------|------------------------------------|
D||------2-2---------------------------|--2---2-2---------------------------|
         . .                                  . .

E||------------------------------------|---------------------0-----0------------|
B||---------------------------0-----0--|-----------5\3-0---0-----0--------------|
G||-----------4h5p0-4p3-0-0-0-----0----|-----------------3-----2----------------|
D||-----------------------------4------|----------------------------------------|
A||------------------------------------|----------------------------------------|
D||--2---2-2---------------------------|--0---0-0--------------------3-3-3-2~/--|
         . .                                  . .                    . . .



Bridge
Guitar 1/2:
E||---------------------------------------------|
B||---------------------------------------------|
G||--10---10---10---10---10---10----------------|
D||--9----9----9----9----9----9-----------------|
A||--8----8----8----8----8----8-----------------|
D||--------------------------------888-8-5-5-5--|
                                   ... . . . .

E||------0-----0-----0-----0-------------------------|
B||----5-----0-----0-----0---------------------------|
G||--7-----4-----5-----2-----------------------------|
D||--------------------------------------------------|
A||--------------------------------------------------|
D||--------------------------3-3-3-2~/--888888-5555--|
                             . . .      ...... ....

E||---------------------------------------------|
B||---------------------------------------------|
G||--10---10---10---10---10---10----------------|
D||--9----9----9----9----9----9-----------------|
A||--8----8----8----8----8----8-----------------|
D||--------------------------------888-8-5-5-5--|
                                   ... . . . .

E||------0-----0-----0-----0------------------------------|
B||----5-----0-----0-----0--------------------------------|
G||--7-----4-----5-----2----------------------------------|
D||-------------------------------------------------------|
A||-------------------------------------------------------|
D||--------------------------333333-222222-888888-555555--|
                             ...... ...... ...... ......

E||---------------------------------------------|
B||---------------------------------------------|
G||--10---10---10---10---10---10----------------|
D||--9----9----9----9----9----9-----------------|
A||--8----8----8----8----8----8-----------------|
D||--------------------------------888-8-5-5-5--|
                                   ... . . . .



Interlude
Guitar 1/2:
E||------0-----0-----0-----0-----------5---3-------------0-----0---------0------|
B||----5-----0-----0-----0---------------------3/5-0---0-----0---------3---3----|
G||--7-----4-----5-----2-----0-0---0-----------------3-----2---------0-------0--|
D||------------------------------4---2---2---2---------------------4------------| x2
A||--------------------------------------------------------------3--------------|
D||-----------------------------------------------------------------------------|
     . . . . . . . . . . . . . . . . .   .   .       . . . . . . . . . . . . .


E||----------0-------------0-------------0--------|
B||--------3---3---------8---8-------------11-11--|
G||------0-------0-----0-------0-------0---0--0---|
D||----4-------------9--------------12------------|
A||--3-------------7-------------10---------------|
D||-----------------------------------------------|
     . . . . . . . . . . . . . . . . . .


E||----------0-------------0-------------0-------------0--------|
B||--------3---3---------3---3---------8---8-------------11-11--|
G||------0-------0-----0-------0-----0-------0-------0---0--0---|
D||----4-------------4-------------9--------------12------------|
A||--3-------------3-------------7-------------10---------------|
D||-------------------------------------------------------------|
     . . . . . . . . . . . . . . . . . . . . . .  .  .


E||----------0-------------0-------------0--------------------------|
B||--------3---3---------3---3---------8---8-----------11-11-11-11--|
G||------0-------0-----0-------0-----0-------0-------0-0--0--0--0---|
D||----4-------------4-------------9--------------12----------------|
A||--3-------------3-------------7-------------10-------------------|
D||-----------------------------------------------------------------|
     . . . . . . . . . . . .



Chorus
Guitar 1/2:
E||----------------------------------------------------------------------|
B||--3---5-5-5-5-5-5-5-5-5-5-5-5-5-5-8---8-8-8-8-8-8-8-8/11-11-11-11-11--|
G||--x---x-x-x-x-x-x-x-x-x-x-x-x-x-x-9---9-9-9-9-9-9-9-9/12-12-12-12-12--|
D||--4---4-4-4-4-4-4-4-4-4-4-4-4-4-4-x---x-x-x-x-x-x-x-x/x--x--x--x--x---| x3
A||--3---3-3-3-3-3-3-3-3-3-3-3-3-3-3-7---7-7-7-7-7-7-7-7/10-10-10-10-10--|
D||----------------------------------------------------------------------|


E||-----------------------------------------------------------------------|
B||--3---5-5-5-5-5-5-5-5-5-5-5-5-5-5-8---8-8-8-8-8-8/11-11---11---11-11\--|
G||--x---x-x-x-x-x-x-x-x-x-x-x-x-x-x-9---9-9-9-9-9-9/12-12---12---12-12\--|
D||--4---4-4-4-4-4-4-4-4-4-4-4-4-4-4-x---x-x-x-x-x-x/x--x----x----x--x-\--|
A||--3---3-3-3-3-3-3-3-3-3-3-3-3-3-3-7---7-7-7-7-7-7/10-10---10---10-10\--|
D||-----------------------------------------------------------------------|



Solo
Guitar 1:
E||--19---18----------6-7---5/7~-----7-6-----------------------|
B||----------17b~---------5--------------8-7-5-8-7-5-----------|
G||--------------------------------------------------8-5-7/9~--|
D||------------------------------------------------------------|
A||------------------------------------------------------------|
D||------------------------------------------------------------|
                      . . .

E||-----------------------------------------------------|
B||-----------------------------------------------------|
G||--9*p8p7p0-8*p7p6p0-7*p6p5p0-6*p5p4p0-4*p3p2p0-2-4*--|
D||-----------------------------------------------------|
A||-----------------------------------------------------|
D||-----------------------------------------------------|


E||-------------------------------------7------12-------15----15\12-------------|
B||--------3/5---5/7---7-----------------------------------------------12-15b~--|
G||--4-3-2-----7-----9--------11*b~---7---7/12----12/15----15-------12----------|
D||-----------------------------------------------------------------------------|
A||-----------------------------------------------------------------------------|
D||-----------------------------------------------------------------------------|
     . . .

E||---------------------------------------------------------------|
B||--15-12-------12----------------15-12-------12-----------------|
G||--------15-14----15-14-15-14-15-------15-14----15-14-15-14-15--|
D||---------------------------------------------------------------|
A||---------------------------------------------------------------|
D||---------------------------------------------------------------|


E||----------------------------------(0~)--|
B||----------------------------------------|
G||--15~--br-/16~---/--12~-\8~---9~--------|
D||----------------------------------------|
A||----------------------------------------|
D||----------------------------------------|


           T               T          T          T
E||--12h15-22p0h15---------19p0-12h15-17p0---------------------------------------|
B||------------------12h15-----------------12h15-17/19\17-15/19\--12~------/15~--|
G||------------------------------------------------------------------------------|
D||------------------------------------------------------------------------------|
A||------------------------------------------------------------------------------|
D||------------------------------------------------------------------------------|


Guitar 2:
E||----------------------------------------------------------------------|
B||--3---5-5-5-5-5-5-5-5-5-5-5-5-5-5-8---8-8-8-8-8-8-8-8/11-11-11-11-11--|
G||--x---x-x-x-x-x-x-x-x-x-x-x-x-x-x-9---9-9-9-9-9-9-9-9/12-12-12-12-12--|
D||--4---4-4-4-4-4-4-4-4-4-4-4-4-4-4-x---x-x-x-x-x-x-x-x/x--x--x--x--x---| x3
A||--3---3-3-3-3-3-3-3-3-3-3-3-3-3-3-7---7-7-7-7-7-7-7-7/10-10-10-10-10--|
D||----------------------------------------------------------------------|


E||-----------------------------------------------------------------------|
B||--3---5-5-5-5-5-5-5-5-5-5-5-5-5-5-8---8-8-8-8-8-8/11-11---11---11-11\--|
G||--x---x-x-x-x-x-x-x-x-x-x-x-x-x-x-9---9-9-9-9-9-9/12-12---12---12-12\--|
D||--4---4-4-4-4-4-4-4-4-4-4-4-4-4-4-x---x-x-x-x-x-x/x--x----x----x--x-\--|
A||--3---3-3-3-3-3-3-3-3-3-3-3-3-3-3-7---7-7-7-7-7-7/10-10---10---10-10\--|
D||-----------------------------------------------------------------------|



Interlude
Guitar 1/2:
E||------0-----0-----0-----0-----------5---3-------------0-----0---------0------|
B||----5-----0-----0-----0---------------------3/5-0---0-----0---------3---3----|
G||--7-----4-----5-----2-----0-0---0-----------------3-----2---------0-------0--|
D||------------------------------4---2---2---2---------------------4------------|
A||--------------------------------------------------------------3--------------|
D||-----------------------------------------------------------------------------|
     . . . . . . . . . . . . . . . . .   .   .       . . . . . . . . . . . . .


E||----------0-------------0-------------0--------|
B||--------3---3---------8---8-------------11-11--|
G||------0-------0-----0-------0-------0---0--0---|
D||----4-------------9--------------12------------|
A||--3-------------7-------------10---------------|
D||-----------------------------------------------|
     . . . . . . . . . . . . . . . . . .


E||----------0-------------0-------------0-------------0--------|
B||--------3---3---------3---3---------8---8-------------11-11--|
G||------0-------0-----0-------0-----0-------0-------0---0--0---|
D||----4-------------4-------------9--------------12------------|
A||--3-------------3-------------7-------------10---------------|
D||-------------------------------------------------------------|
     . . . . . . . . . . . . . . . . . . . . . .  .  .


E||----------0-------------0-------------0--------------------------|
B||--------3---3---------3---3---------8---8-----------11-11-11-11--|
G||------0-------0-----0-------0-----0-------0-------0-0--0--0--0---|
D||----4-------------4-------------9--------------12----------------|
A||--3-------------3-------------7-------------10-------------------|
D||-----------------------------------------------------------------|
     . . . . . . . . . . . .



Chorus / Outro
Guitar 1/2:
E||----------------------------------------------------------------------|
B||--3---5-5-5-5-5-5-5-5-5-5-5-5-5-5-8---8-8-8-8-8-8-8-8/11-11-11-11-11--|
G||--x---x-x-x-x-x-x-x-x-x-x-x-x-x-x-9---9-9-9-9-9-9-9-9/12-12-12-12-12--|
D||--4---4-4-4-4-4-4-4-4-4-4-4-4-4-4-x---x-x-x-x-x-x-x-x/x--x--x--x--x---| x3
A||--3---3-3-3-3-3-3-3-3-3-3-3-3-3-3-7---7-7-7-7-7-7-7-7/10-10-10-10-10--|
D||----------------------------------------------------------------------|


E||-----------------------------------------------------------------------|
B||--3---5-5-5-5-5-5-5-5-5-5-5-5-5-5-8---8-8-8-8-8-8/11-11---11---11-11\--|
G||--x---x-x-x-x-x-x-x-x-x-x-x-x-x-x-9---9-9-9-9-9-9/12-12---12---12-12\--|
D||--4---4-4-4-4-4-4-4-4-4-4-4-4-4-4-x---x-x-x-x-x-x/x--x----x----x--x-\--|
A||--3---3-3-3-3-3-3-3-3-3-3-3-3-3-3-7---7-7-7-7-7-7/10-10---10---10-10\--|
D||-----------------------------------------------------------------------|




Tablature Legend
----------------
 h   hammer-on
 p   pull-off
 b   bend
 pb  pre-bend
 r   release bend
 ~   hold / vibrato
 .   palm mute
 /   slide up
 \   slide down
 *   pinch harmonic
 '   natural harmonic
 x   mute note
 T   tap

            
            
Suggest correction
Creating personal tab
Creating personal tab
You can edit any tab online and save it as your Personal.

You can edit, replace or remove any tab part or add personal notes – all changes will be seen only by you.

Personal tabs can be accessed anytime from any device, even offline.
Learn more »
Give kudos to tab author, rate the tab!
1 2 3 4 5
comments
print report bad tab
guest
You may want to rate the tab now too:
select rating
Wanna post a correction for this tab? Suggest correction