Oops, an error
Loading. Please wait.

Where Are The Birds Bass Tab

136 views 3 this week
1 commentread comment
1 2 3 4 5
2 more votes to show rating
add to favorites
launch autoscroll
font size
0
reset
guitar tuner
Autoscroll
slow
fast
+/-
esc
set tempo
stop
Help us to improve Ultimate-Guitar.com Take our survey!
×
Author
Difficulty
Tuning
intermediate
D A D G B E
Tabbed by: Joshua Garcia (joshuag523@aol.com)

Tabs for the song: Where Are the Birds by Good Tiger
Please rate and let me know if you have any corrections. Thank you.


Tuning: Drop D (D A D G)


[Verse]
G||-----------------------------------------------------|
D||-----------------------------------------------------|
A||----------7\-----------7\-----------7\-----------7\--|
D||--2-0---2------2-0---2------2-0---2------2-0---2-----|


G||-----------------------------------------------------|
D||-----------------------------------------------------|
A||-----------------------------------------------------| x4
D||--2-0---2-2----2-0---2-2----2-0---2-2----2-0---2-2---|



[Chorus]
G||-------------------------------------------------------------------|
D||-------------------------------------------------------------------|
A||--------------3-3-3-3-3-3-3-3-3-3-3-3-3-3-3-3-3-3-3-3-3-3-3-3-3-3--|
D||--2-2-2-0-0-0------------------------------------------------------|


G||-------------------------------------------------------------------|
D||-------------------------------------------------------------------|
A||--------------3~--------------3~--------------3~--------------3~---|
D||--2-----0----------------------------------------------------------|


G||-------------------------------------------------------------------|
D||-------------------------------------------------------------------|
A||--------------3-3-3-3-3-3-3-3-3-3-3-3-3-3-3-3-3-3-3-3-3-3-3-3-3-3--|
D||--2-2-2-0-0-0------------------------------------------------------|


G||-------------------------------------------------------------------|
D||-------------------------------------------------------------------|
A||-------------------------------------------------------------------|
D||--2-----0-----7-7-7-7-7-7-7-7-7-7-7-7-7-7-7-7-7-7-9-9-9-9-9-9-9-9--|


G||----------------|
D||----------------|
A||----------------|
D||--9~---9~---9~--|



[Verse]
G||-----------------------------------------------------|
D||-----------------------------------------------------|
A||-----------------------------------------------------|
D||-----------------------------------------------------|


G||-----------------------------------------------------|
D||-----------------------------------------------------|
A||-----------------------------------------------------|
D||--2-0---2-2----2-0---2-2----2-0---2-2----2-0---2-2---|



G||-----------------------------------------------------|
D||-----------------------------------------------------|
A||----------7\-----------7\-----------7\-----------7\--|
D||--2-0---2------2-0---2------2-0---2------2-0---2-----|


G||-----------------------------------------------------|
D||-----------------------------------------------------|
A||-----------------------------------------------------| x3
D||--2-0---2-2----2-0---2-2----2-0---2-2----2-0---2-2---|



[Chorus]
G||-------------------------------------------------------------------|
D||-------------------------------------------------------------------|
A||--------------3-3-3-3-3-3-3-3-3-3-3-3-3-3-3-3-3-3-3-3-3-3-3-3-3-3--|
D||--2-2-2-0-0-0------------------------------------------------------|


G||-------------------------------------------------------------------|
D||-------------------------------------------------------------------|
A||--------------3~--------------3~--------------3~--------------3~---|
D||--2-----0----------------------------------------------------------|


G||-------------------------------------------------------------------|
D||-------------------------------------------------------------------|
A||--------------3-3-3-3-3-3-3-3-3-3-3-3-3-3-3-3-3-3-3-3-3-3-3-3-3-3--|
D||--2-2-2-0-0-0------------------------------------------------------|


G||-------------------------------------------------------------------|
D||-------------------------------------------------------------------|
A||-------------------------------------------------------------------|
D||--2-----0-----7-7-7-7-7-7-7-7-7-7-7-7-7-7-7-7-7-7-9-9-9-9-9-9-9-9--|



[Bridge]
G||---------------------------------------|-------------------------------------|
D||---------------------------------------|-------------------------------------|
A||---------------------------------------|---------------------------------5~--| x4
D||--2---2---0-2--------2~------0-2-2/5~--|--2---2---0-2--------2~------0-2-----|



[Chorus / Outro]
G||-------------------------------------------------------------------|
D||-------------------------------------------------------------------|
A||--------------3-3-3-3-3-3-3-3-3-3-3-3-3-3-3-3-3-3-3-3-3-3-3-3-3-3--|
D||--2-2-2-0-0-0------------------------------------------------------|


G||-------------------------------------------------------------------|
D||-------------------------------------------------------------------|
A||--------------3~--------------3~--------------3~--------------3~---|
D||--2-----0----------------------------------------------------------|


G||-------------------------------------------------------------------|
D||-------------------------------------------------------------------|
A||--------------3-3-3-3-3-3-3-3-3-3-3-3-3-3-3-3-3-3-3-3-3-3-3-3-3-3--|
D||--2-2-2-0-0-0------------------------------------------------------|


G||-------------------------------------------------------------------|
D||-------------------------------------------------------------------|
A||-------------------------------------------------------------------|
D||--2-----0-----7-7-7-7-7-7-7-7-7-7-7-7-7-7-7-7-7-7-9-9-9-9-9-9-9-9--|


G||-------------------------------------------------------------------|
D||-------------------------------------------------------------------|
A||--------------3-3-3-3-3-3-3-3-3-3-3-3-3-3-3-3-3-3-3-3-3-3-3-3-3-3--|
D||--2-2-2-0-0-0------------------------------------------------------|


G||-------------------------------------------------------------------|
D||-------------------------------------------------------------------|
A||--------------3~--------------3~--------------3~--------------3~---|
D||--2-----0----------------------------------------------------------|


G||-------------------------------------------------------------------|
D||-------------------------------------------------------------------|
A||--------------3-3-3-3-3-3-3-3-3-3-3-3-3-3-3-3-3-3-3-3-3-3-3-3-3-3--|
D||--2-2-2-0-0-0------------------------------------------------------|


G||-------------------------------------------------------------------|
D||-------------------------------------------------------------------|
A||-------------------------------------------------------------------|
D||--2-----0-----7-7-7-7-7-7-7-7-7-7-7-7-7-7-7-7-7-7-9~----9~----9~---|





*****************************
-Tablature Legend-

 h   hammer-on
 p   pull-off
 b   bend
 pb  pre-bend
 r   release bend
 ~   hold / vibrato
 .   palm mute
 /   slide up
 \   slide down
 *   pinch harmonic
 '   natural harmonic
 x   mute note
 T   tap

*****************************
Suggest correction
Give kudos to tab author, rate the tab!
1 2 3 4 5
comments
print report bad tab
1 comment total.
0 reply
Whiplash2067 10 Nov 11, 2016 05:45 AM

Everything seems to be here! A simple but definitely fun jam.

guest
You may want to rate the tab now too:
select rating
Wanna post a correction for this tab? Suggest correction