Oops, an error
Loading. Please wait.

Darlin tab

442 views 30 this week
no commentswrite comment
1 2 3 4 5
1 last vote to show rating
add to favorites
×
Save as Personal and add changes to this tab that will be seen only by you. Learn more ›
×
You can save this tab as Personal to edit and correct it or add notes. All changes will be seen only by you. Learn more »
launch autoscroll
font size
0
reset
how to read this tab
guitar tuner
edit
Autoscroll
slow
fast
+/-
esc
set tempo
stop
About this tab version
Capo 1. Chart includes chords and plucking patterns in addition to lyrics, of course. Was this info helpful? Yes No
Capo 1

[Intro]
Bm
e|--------------------|
B|----3----3----3----3|
G|----4----4----4----4|  (x4)
D|--------------------|
A|-2----2----2----2---|
E|--------------------|

[Verse]
  Bm
  Well they're back on my case again
e|-----------------------------------------------|
B|----3----3----3----3----3----3----3----3----3--|
G|----4----4----4----4----4----4----4----4----4--|
D|-----------------------------------------------|
A|-2----2----2----2----2----2----2----2----2-----|
E|-----------------------------------------------|

  G                                                       D
 Feels like I ain't got one single friend- Yeah I'm all alone, and I don't know where you 
e|---------------------------------------------------------------------------------------|
B|----0----0----0----0----0----0----0----0-----------------------------------------------|
G|----0----0----0----0----0----0----0----0--------------------2-------2-------2-------2--|
D|--------------------------------------------------------4-------4-------4-------4------|
A|-2----2----2----2----2----2----2----2-----------------0---0---0---0---0---0---0---0----|
E|---------------------------------------------------------------------------------------|

   F#
  went
e|----------------------------------------------|
B|----------------------------------------------|
G|----------------------------------------------|
D|----4-----4-----4-----4-----4-----4-----4-----|
A|----4-----4-----4-----4-----4-----4-----4-----|
E|-2-----2-----2-----2-----2-----2-----2-----2--|

Bm
 Sometimes love is not the best thing for you
G
 Sometimes love will bring you to your knees                      (same plucking pattern)
                  D
And your heart it sinks then depletes
           F#
You either get up or you lay down and die

[Chorus]
      G
  But darlin' I don't know what you've done to me but it works and I hate it; Works and I hate it
e|---------------------------------------------------------------------------|
B|---------------------------------------------------------------------------|
G|---0-----2----0----2----0---2-----0---2----0----2----0---------------------|          
D|---------------------------------------------------------------------------|
A|---------------------------------------------------------------------------|
E|-3----3----3----3----3----3----3----3----3----3----3----3------------------|

      G
  But darlin' I don't know what you've done to me but it works and I hate it;
e|---------------------------------------------------------------------------|
B|---------------------------------------------------------------------------|
G|---0-----2----0----2----0---2-----0---2----0----2----0---------------------|
D|---------------------------------------------------------------------------|
A|---------------------------------------------------------------------------|
E|-3----3----3----3----3----3----3----3----3----3----3----3------------------|

   F#
  Works and I hate it
e|---------------------------------------------------------------------------|
B|--------2-------2--------2-------------------------------------------------|
G|---3--------3--------3-----------------------------------------------------|
D|---------------------------------------------------------------------------|
A|-4---4----4---4----4---4---------------------------------------------------|
E|---------------------------------------------------------------------------|

[Verse 2]
She whispers softly in my ear
She's a telling me all the things I want to hear
I turn to respond, but she's way far gone
Of course we had dreams together
Dreams I thought would never change
You took the one thing that I loved the most
You took it all away, woah-oh

[Chorus]
But darlin' I don't know what you've done to me
But it works and I hate it
Darlin' I don't know what you've done to me
But it works and I hate it, works and I hate it

            
            
Suggest correction
Creating personal tab
Creating personal tab
You can edit any tab online and save it as your Personal.

You can edit, replace or remove any tab part or add personal notes – all changes will be seen only by you.

Personal tabs can be accessed anytime from any device, even offline.
Learn more »
Give kudos to tab author, rate the tab!
1 2 3 4 5
comments
print report bad tab
guest
You may want to rate the tab now too:
select rating
Wanna post a correction for this tab? Suggest correction