Oops, an error
Loading. Please wait.

Good Side tab

7 views 7 this week
no commentswrite comment
1 2 3 4 5
3 more votes to show rating
add to favorites
×
Save as Personal and add changes to this tab that will be seen only by you. Learn more ›
×
You can save this tab as Personal to edit and correct it or add notes. All changes will be seen only by you. Learn more »
launch autoscroll
font size
0
reset
how to read this tab
guitar tuner
edit
Autoscroll
slow
fast
+/-
esc
set tempo
stop
Title: Good Side 
Artist: Goodbye June
Album: Magic Valley
Author: Andrew Biggers

I'm open to suggestions for improvements


Tuning is Eb

4/4 time if anyone cares, but can't figure it out.

[Track 1: main riff]
  This is all primarily 8th notes
E|---------------------------------|---------------------------------|---------------------------------|
B|---------------------------------|---------------------------------|---------------------------------|
G|---------------------------------|---------------------------------|---------------------------------|
D|---------5-------5---------------|-3-------3-----------------------|---------8-------8---------------|
A|---------------------------------|---------------------------------|---------------------------------|
E|-3---3-------------------3---3---|-----------------3---1---3---3---|-6---6-------------------8---8---|


E|---------------------------------|
B|---------------------------------|
G|---------------------------------|
D|-10------10------8---10--8-------|
A|-----------------------------10--|
E|---------------------------------|

[Track 2: Overdriven rhythym]
(pretty much the whole song except for a bit in the pre-chorus which I suspect is just a F#m)
  easy peasy all 8th notes
E|---------------------------------|---------------------------------|---------------------------------|
B|---------------------------------|---------------------------------|---------------------------------|
G|---------------------------------|---------------------------------|---------------------------------|
D|-5---5---5---5---5---5---5---5---|-5---5---5---5---5---5---5---5---|-8---8---8---8---8---8---10--10--|
A|-5---5---5---5---5---5---5---5---|-5---5---5---5---5---5---5---5---|-8---8---8---8---8---8---10--10--|
E|-3---3---3---3---3---3---3---3---|-3---3---3---3---3---3---3---3---|-6---6---6---6---6---6---8---8---|


E|---------------------------------|
B|---------------------------------|
G|---------------------------------|
D|-10--10--10--10--10--10--10--10--|
A|-10--10--10--10--10--10--10--10--|
E|-8---8---8---8---8---8---8---8---|

[Track 3: Bass]
(just goes along witht the chords being played by the rhythym)
I can't really hear this too well, but more 8th notes cause why not?
G|---------------------------------|---------------------------------|---------------------------------|
D|---------------------------------|---------------------------------|---------------------------------|
A|---------------------------------|---------------------------------|-1---1---1---1---1---1---3---3---|
E|-3---3---3---3---3---3---3---3---|-3---3---3---3---3---3---3---3---|---------------------------------|


G|---------------------------------|
D|---------------------------------|
A|-3---3---3---3---3---3---3---3---|
E|---------------------------------|

[Track 5]
lead/ vocals (rough)
  <-------repeats twice for intro/verses------>         (vocals begin here)
E|-15-----|-13----10----|-6------|-8-----6-----|-----------------------|---------------------------|
B|--------|-------------|--------|-------------|-----------------------|---------------------------|
G|--------|-------------|--------|-------------|-----------------------|---------------------------|
D|--------|-------------|--------|-------------|---------3-------3-----|-3-------3---3-------------|
A|--------|-------------|--------|-------------|-------------5---------|-----5-----------5---------|
E|--------|-------------|--------|-------------|-----------------------|----------------------3----|
                                                   (Where's the time...

E|---------------------------------|--------|------------------------------|---------------------------------|
B|---------------------------------|--------|------------------------------|---------------------------------|
G|---------------------------------|--------|------------------------------|---------------------------------|
D|---------------------------------|--------|---------3-------3------------|-3---3---------------------------|
A|---------------------------------|--------|-----5-------5------------5---|---------5---5---3---3-----------|
E|---------------------------------|--------|------------------------------|-------------------------5---3---|


E|-------------|--------|-----3---3-------6--------3---|-3-------3-------3----6----|
B|-------------|--------|-------------6----------------|-----6-------6-------------|
G|-------3-----|--------|------------------------------|---------------------------|
D|-------------|--------|------------------------------|---------------------------|
A|-------------|--------|------------------------------|---------------------------|
E|-------------|--------|------------------------------|---------------------------|


E|-----3---3-------6--------3---|-3-------3-------3----6----|-----------------3------------|
B|-------------6----------------|-----6-------6-------------|-----3---6---3------------3---|
G|------------------------------|---------------------------|------------------------------|
D|------------------------------|---------------------------|------------------------------|
A|------------------------------|---------------------------|------------------------------|
E|------------------------------|---------------------------|------------------------------|


E|---------------------------|---------------------------|---------------------------|
B|-6---6---6---3-------------|---------------------------|---------------------------|
G|-----------------5---------|---------3---5---3---------|---------3---5---3---------|
D|----------------------5----|----------------------5----|----------------------5----|
A|---------------------------|---------------------------|---------------------------|
E|---------------------------|---------------------------|---------------------------|
                                                              ...yeah, I'll cross her.)
Suggest correction
Creating personal tab
Creating personal tab
You can edit any tab online and save it as your Personal.

You can edit, replace or remove any tab part or add personal notes – all changes will be seen only by you.

Personal tabs can be accessed anytime from any device, even offline.
Learn more »
Give kudos to tab author, rate the tab!
1 2 3 4 5
comments
print report bad tab
guest
You may want to rate the tab now too:
select rating
Wanna post a correction for this tab? Suggest correction