Oops, an error
Loading. Please wait.

Milkshake bass

version 1
version 1

Whole song

Interactive

3,048 views 1 this week
1 commentread comment
1 2 3 4 5
x 5
add to favorites
×
Save as Personal and add changes to this tab that will be seen only by you. Learn more ›
×
You can save this tab as Personal to edit and correct it or add notes. All changes will be seen only by you. Learn more »
launch autoscroll
font size
0
reset
guitar tuner
edit
Autoscroll
slow
fast
+/-
esc
set tempo
stop
-----------------------------------------------------------------------
                      MILKSHAKE - Goodnight Nurse
-----------------------------------------------------------------------

Tabbed By: Samuel Mobbs
Email: bogan_bassist@hotmail.com

Tuning: Drop Db (Db Ab Db Gb)

Intro

Gb|----------------|
Db|----------------|
Ab|----------------|
Db|0---0---0---0---|

Chorus

Gb|----------------|----------------|----------------|----------------|
Db|----------------|----------------|----------------|----------------|
Ab|----------------|----------------|----------------|----------------|
Db|0-1---1-0---0---|0-1---1-0---0---|0-1---1-0---0---|0-1---1-0---8/--|

Gb|----------------|----------------|----------------|----------------|
Db|----------------|----------------|----------------|----------------|
Ab|----------------|----------------|----------------|----------------|
Db|0-1---1-0---0---|0-1---1-0---0---|0-1---1-0---0---|0-1---1-0---0---|

Pre-Verse

Gb|----------------|
Db|1~--------------|
Ab|----------------|
Db|----------------|

Verse

Gb|----------------|              Gb|----------------|
Db|000-000-000-000-|              Db|00000-----------|
Ab|----------------|  X  7  then  Ab|----------------|
Db|----------------|              Db|----------------|

Pre-Chorus

Gb|----------------|----------------|----------------|----------------|
Db|1-1---1-0---0---|----------------|1-1---1-0---0---|----------------|
Ab|----------------|----------------|----------------|----------------|
Db|----------------|----------------|----------------|----------------|

Gb|----------------|----------------|----------------|----------------|
Db|1-1---1-0---0---|----------------|1-1---1-0---0---|----------------|
Ab|----------------|----------------|----------------|----------------|
Db|----------------|----------------|----------------|------------8/--|

Chorus

Gb|----------------|----------------|----------------|----------------|
Db|----------------|----------------|----------------|----------------|
Ab|----------------|----------------|----------------|----------------|
Db|0-1---1-0---0---|0-1---1-0---0---|0-1---1-0---0---|0-1---1-0---8/--|

Gb|----------------|----------------|----------------|----------------|
Db|----------------|----------------|----------------|----------------|
Ab|----------------|----------------|----------------|----------------|
Db|0-1---1-0---0---|0-1---1-0---0---|0-1---1-0---0---|0-1---1-0---0---|

Fill

Gb|----------------|----------------|----------------|----------------|
Db|----------------|----------------|xxxxxxxxxxxxxxxx|xxxxxxxxxxxxxxxx|
Ab|----------------|----------------|----------------|----------------|
Db|0~--------------|(0)-------------|----------------|----------------|

Bridge

Gb|----------------|----------------|----------------|----------------|
Db|----------------|1-1-111-3-3-333-|----------------|1-1-111-3-3-333-|
Ab|3-3-333-2-2-222-|----------------|3-3-333-2-2-222-|----------------|
Db|----------------|----------------|----------------|----------------|

Gb|----------------|----------------|----------------|----------------|
Db|----------------|1-1-111-3-3-333-|----------------|----------------|
Ab|3-3-333-2-2-222-|----------------|2-2-222-2-2-222-|2-2-222-2---2---|
Db|----------------|----------------|----------------|----------------|

Bridge pt. 2

Gb|----------------|----------------|----------------|----------------|
Db|1-------0-------|(0)-------------|1-------0-------|(0)-------------|
Ab|----------------|----------------|----------------|----------------|
Db|----------------|----------------|----------------|----------------|

Gb|----------------|----------------|----------------|----------------|
Db|1-------0-------|(0)-------------|1-------0-------|----------------|
Ab|----------------|----------------|----------------|----------------|
Db|----------------|----------------|----------------|----------------|

Chorus

Gb|----------------|----------------|----------------|----------------|
Db|----------------|----------------|----------------|----------------|
Ab|----------------|----------------|----------------|----------------|
Db|0-1---1-0---0---|0-1---1-0---0---|0-1---1-0---0---|0-1---1-0---8/--|

Gb|----------------|----------------|----------------|----------------|
Db|----------------|----------------|----------------|----------------|
Ab|----------------|----------------|----------------|----------------|
Db|0-1---1-0---0---|0-1---1-0---0---|0-1---1-0---0---|0-1---1-0---0---|

Outro

Gb|----------------|----------------|----------------|----------------|
Db|----------------|----------------|----------------|----------------|
Ab|----------------|----------------|----------------|----------------|
Db|0---0---0---0---|0---0---0---0---|0---0---0---0---|0-1---1-0-------|
                                     .   .   .   .

Pretty straight forward. I'll leave you to it.

Questions, comments, corrections? Email me at bogan_bassist@hotmail.com

| /  slide up
| \  slide down
| h  hammer-on
| p  pull-off
| ~  hold note
| +  harmonic
| x  mute note
=======================================================================
Suggest correction
Creating personal tab
Creating personal tab
You can edit any tab online and save it as your Personal.

You can edit, replace or remove any tab part or add personal notes – all changes will be seen only by you.

Personal tabs can be accessed anytime from any device, even offline.
Learn more »
comments
print report bad tab
1 comment total.
0 reply
Cabbage101 10 Sep 21, 2007 10:01 AM

That is wicked nice 1. loads better version then kelis or whoever it was

guest
You may want to rate the tab now too:
select rating
Wanna post a correction for this tab? Suggest correction