Oops, an error
Loading. Please wait.

My Only bass

version 1
version 1

Whole song

Interactive

1,673 views 3 this week
2 commentsread comments
1 2 3 4 5
2 more votes to show rating
add to favorites
×
Save as Personal and add changes to this tab that will be seen only by you. Learn more ›
×
You can save this tab as Personal to edit and correct it or add notes. All changes will be seen only by you. Learn more »
launch autoscroll
font size
0
reset
guitar tuner
edit
Autoscroll
slow
fast
+/-
esc
set tempo
stop
THIS IS MY FIRST SONG I HAVE EVER TABBED...HOPEFULLY THERE WILL BEMORE TO 
NURSE ARE A FUCKING AWESOME BAND...ENJOY

Intro: Guitar first then bass and drums kick in.

G-----------------------------------------------------------------|x2
D-----------------------------------------------------------------|x2
A----------33333333---------22222222------------------------------|x2
E-22222222---------44444444---------------------------------------|x2

Verse1:Bass kicks in halfway through verse

G-----------------------------------------------------------------|x1
D--------------------554422---------554422------------------------|x1
A----------33333333---------22------------------------------------|x1
E-22222222---------44---------------------------------------------|x1

G-----------------------------------------------------------------|x1
D-----------------------------------------------------------------|x1
A----------33333333----------2------------------------------------|x1
E-22222222----------44444444--------------------------------------|x1


Chorus:

G-----------------------------------------------------------------|x2
D-----------------------------------------------------------------|x2
A----------33333333----------22222222-----------------------------|x2
E-22222222----------44444444--------------------------------------|x2

Introx1

Verse2: bass kicks in second time

G-----------------------------------------------------------------|x1
D---------------------554422---554422-----------------------------|x1
A----------3~----------------22-----------------------------------|x1
E-2~----------------44--------------------------------------------|x1

G-----------------------------------------------------------------|x1
D-----------------------------------------------------------------|x1
A----------33333333----------22222222-----------------------------|x1
E-2-----------------44444444--------------------------------------|x1

G-----------------------------------------------------------------|x1
D-----------------------------------------------------------------|x1
A----------33333333----------2------------------------------------|x1
E-22222222----------44444444--------------------------------------|x1

Chorus:

G-----------------------------------------------------------------|x2
D-----------------------------------------------------------------|x2
A----------33333333----------22222222-----------------------------|x2
E-22222222----------44444444--------------------------------------|x2

Guitar Solo:

G-----------------------------------------------------------------|x2
D-----------------------------------------------------------------|x2
A----------33333333----------22222222-----------------------------|x2
E-22222222----------44444444--------------------------------------|x2

G-----------------------------------------------------------------|x2
D-----------------------------------------------------------------|x2
A---------3-3-3-3---------2-2-2-2---------------------------------|x2
E-2-2-2-2---------4-4-4-4-----------2~(second time only)----------|x2

No Bass For A Bit

G-----------------------------------------------------------------|x2
D-----------------------------------------------------------------|x2
A-----------------------------------------------------------------|x2
E-0~--------------------------------------------------------------|x2

Chorus/Outro

G-----------------------------------------------------------------|x4
D-----------------------------------------------------------------|x4
A----------33333333----------22222222-----------------------------|x4
E-22222222----------44444444--------------------------------------|x4

End On

G-----------|
D-----------|
A-----------|
E-2~~~~~~---

            
            
Suggest correction
Creating personal tab
Creating personal tab
You can edit any tab online and save it as your Personal.

You can edit, replace or remove any tab part or add personal notes – all changes will be seen only by you.

Personal tabs can be accessed anytime from any device, even offline.
Learn more »
Give kudos to tab author, rate the tab!
1 2 3 4 5
comments
print report bad tab
2 comments total.
0 reply
callum_250 10 Sep 11, 2006 04:01 AM

hey dude, ummm just looking at ur tab it doesnt go F#-C-G#-B Its F#-C-A-B... Thats for the chorus n verse n yeh whatever... good try 4 ur first tab!!!!!!!!

0 reply
Masterbasser32 31 Sep 12, 2006 01:05 AM

yeah lol that was a typo i was playing the song later that night and im like....shit i wrote it wrong hahaha tried to change it but didnt save it lol ill put up a new one

guest
You may want to rate the tab now too:
select rating
Wanna post a correction for this tab? Suggest correction