Oops, an error
Loading. Please wait.

My Only tab

version 3
version 3

Whole song

Interactive

1,687 views 3 this week
2 commentsread comments
1 2 3 4 5
x 5
add to favorites
×
Save as Personal and add changes to this tab that will be seen only by you. Learn more ›
×
You can save this tab as Personal to edit and correct it or add notes. All changes will be seen only by you. Learn more »
launch autoscroll
font size
0
reset
how to read this tab
guitar tuner
edit
Autoscroll
slow
fast
+/-
esc
set tempo
stop
Artist: GOODNIGHT NURSE!!!
Guitarist: Joel Little
Tabber: Tim Carter
Tuning: Standard (E,A,D,G,B,e)


Intro (palm mute)
e|-0-0-3-2-0-0-3-2-3-3-2-0-2-2-0----|
B|--0-0-0-0-1-1-1-1-0-0-0-0-0-0-04--|
G|--------------------------------4-|
D|----------------------------------| (repeat without palm mute)
A|----------------------------------|
E|----------------------------------|
   ................................

Verse

|-----------------------------------|
|-----------------------------------|
|-----------------------------------|
|---------55555555--------44444444--| X3
|-22222222555555555555555544444444--|
|-22222222333333335555555522222222--|
|-00000000--------33333333----------|
  ................................
then

|-----------------------------------|
|-----------------------------------|
|-----------------------------------|
|---------55555555--------4---------| X3
|-2222222255555555555555554---------|
|-2222222233333333555555552---------|
|-00000000--------33333333----------|
  ........................

Chorus

|-----------------------------------|
|-----------------------------------|
|---------55555555--------44444444--|
|-22222222555555555555555544444444--|
|-22222222333333335555555522222222--|
|-00000000--------33333333----------|
Play un-muted part of intro once

verse 2
|-----------------------------------|
|-----------------------------------|
|-----------------------------------|
|---------55555555--------44444444--| X2
|-22222222555555555555555544444444--|
|-22222222333333335555555522222222--|
|-00000000--------33333333----------|
  ................................
then

|-----------------------------------|
|-----------------------------------|
|-----------------------------------|
|---------55555555--------44444444--|
|-2-------555555555555555544444444--|
|-2-------333333335555555522222222--|
|-0---------------33333333----------|
                  ................

|-----------------------------------|
|-----------------------------------|
|-----------------------------------|
|---------55555555--------4---------|
|-2222222255555555555555554---------|
|-2222222233333333555555552---------|
|-00000000--------33333333----------|
  ........................

Chorus

Bridge:

|--------------------------------------------|
|--------------------------------------------|
|--------------------------------------------|
|-7-5----5/7-5~--/9-9-5-7-5-4~---------------|X3
|-----2-3------------------------------------|
|--------------------------------------------|

|--------------------------------|
|--------------------------------|
|--------------------------------|
|-7-5----5/7-5~--/9-9-5-7-5-4-5~-|
|-----2-3------------------------|
|--------------------------------|

1st verse riff backs up soloish bridge thing, then you let this not ring
|--------------------------------------------|
|--------------------------------------------|
|--------------------------------------------|
|-5~-----------------------------------------|
|-5~-----------------------------------------|
|-3~-----------------------------------------|

this riff starts after the G5 is played
|----------------------------------------------------------------------|
|----------------------------------------------------------------------|
|-----------------5555555555555555----------------7~-------------------|
|-5555555555555555555555555555555555555555555555557~-------------------|
|-5555555555555555333333333333333355555555555555555~-------------------|
|-3333333333333333----------------3333333333333333---------------------|
  ................................................


Chorus X2

end on 
|---|
|---|
|---|
|2~-|
|2~-|
|0~-|
Suggest correction
Creating personal tab
Creating personal tab
You can edit any tab online and save it as your Personal.

You can edit, replace or remove any tab part or add personal notes – all changes will be seen only by you.

Personal tabs can be accessed anytime from any device, even offline.
Learn more »
comments
print report bad tab
2 comments total.
0 reply
Shorty_rox_06 492 Nov 06, 2006 08:04 PM

this version is dead on. Great fukn work. allthough there is something i add when playing it. Look closely at the main riff.

E|--0-0-3-2-0-0-3-2-3-3-2-0-2-2-0-----|
B|---0-0-0-0-1-1-1-1-1-1-1-1-0-0-0-4--|
G|----------------------------------4-|
D|------------------------------------|
A|------------------------------------|
E|------------------------------------|

can u spot the difference

0 reply
VindictiveBaybe 20 Jan 10, 2007 02:51 PM

This is perfect... But I think I agree with shorty_rox_06 about the other 1's :)
Totally 5 stars!

guest
Wanna post a correction for this tab? Suggest correction