Oops, an error
Loading. Please wait.

Our Song bass

version 2
version 2

Whole song

573 views 1 this week
1 commentread comment
1 2 3 4 5
2 more votes to show rating
add to favorites
×
Save as Personal and add changes to this tab that will be seen only by you. Learn more ›
×
You can save this tab as Personal to edit and correct it or add notes. All changes will be seen only by you. Learn more »
launch autoscroll
font size
0
reset
guitar tuner
edit
Autoscroll
slow
fast
+/-
esc
set tempo
stop
Author
Our Song by Goodnight Nurse

Great song, It would take ages to write the timing so listen to the song and figure it 
I'm pretty sure this tab is exactly how Paul used to play it, enjoy.

Tuning: standard


Intro/verse
G|--9--9--9---44-4-4-/-9--9--9---44-4-4------------------|
D|--10-10-10--55-5-5-/-10-10-10--55-5-5------------------|
A|-------------------------------------------------------|
E|-------------------------------------------------------|

G|--5-5-5--44-4-4--5-5-5--7--7---7--7-/--------------------|
D|--7-7-7--55-5-5--7-7-7—-9—-9---9--9-/--------------------|
A|---------------------------------------------------------|
E|---------------------------------------------------------|

Pre chorus
G|-------------------------------------------------------|
D|-------------------------------------------------------|
A|-------------------------------------------------------|
E|-11111111-3~-------------------------------------------|

chorus
G|-------------------------------------------------------|
D|----------------------5--5---5--5----------------------|
A|--3-3-3--------3-3-3-----------------------------------|
E|--------3--3-3-----------------------------------------|

G|---------------------------------------------------------|
D|---------------------------------------------------------|
A|---------------------------------------------------------|
E|--5-5-5--7--7-7--5-5-5--0-0-0----11111111-3~-------------|

play verse again
then pre chorus
chorus

Bridge
G|--------------------------------------------------------------|
D|--------------------------------------------------------------|
A|-3-3-3--22-2-2--------------------------------3-3-3--33-3-3---|
E|----------------5-5-5--55-5-5--1-1-1--33-3-3------------------|

G|-------------------------------------------------------|
D|-------------------------------------------------------|
A|-------1010-10-10--------------------------------------|
E|-8-8-8-------------5-5-5-55-5-5--1-1-1--3-33-3-3-------|

Pause, then

G|-------------------------------------------------------------------------|
D|-------------------------------------------------------------------------|
A|-3333333-22222222-333333333-22222222-------------------------------------|
E|------------------------------------55555555-77777777-55555555-0000000---|

G|-------------------------------------------------------|
D|-------------------------------------------------------|
A|-------------------------------------------------------|
E|-1111111111-3~-----------------------------------------|

chorus

Outro
G|--------------------------------------------------------------|
D|--------------------------------------------------------------|
A|-3-3-3--22-2-2--------------------------------3-3-3--33-3-3---|
E|----------------5-5-5--55-5-5--1-1-1--33-3-3------------------|

G|-------------------------------------------------------|
D|-------------------------------------------------------|
A|-------1010-10-10--------------------------------------|
E|-8-8-8-------------5-5-5-55-5-5--1-1-1--3-33-3-3-------|

G|--------------------------------------------------------------|
D|--------------------------------------------------------------|
A|-3-3-3--22-2-2--------------------------------3-3-3--33-3-3---|
E|----------------5-5-5--55-5-5--1-1-1--33-3-3------------------|

            
            
Suggest correction
Creating personal tab
Creating personal tab
You can edit any tab online and save it as your Personal.

You can edit, replace or remove any tab part or add personal notes – all changes will be seen only by you.

Personal tabs can be accessed anytime from any device, even offline.
Learn more »
Give kudos to tab author, rate the tab!
1 2 3 4 5
comments
print report bad tab
1 comment total.
0 reply
teh_axel 10 Dec 10, 2007 09:45 PM

did u tab the intro yourself? it looks like the correction i put up on the other tab but with everything looking
properly...

guest
You may want to rate the tab now too:
select rating
Wanna post a correction for this tab? Suggest correction