Oops, an error
Loading. Please wait.

Suffer Tab

99 views 1 this week
1 commentread comment
1 2 3 4 5
2 more votes to show rating
add to favorites
launch autoscroll
font size
0
reset
how to read this tab
guitar tuner
Autoscroll
slow
fast
+/-
esc
set tempo
stop
Help us to improve Ultimate-Guitar.com Take our survey!
×
Author
Difficulty
Tuning
novice
D A D G B E
This is a very cool song from the Always And Never album, and follows Suffocating Slow.
a great song, and not too hard to play, just know how to pull off suspended chords, and
two guitars or an overdub. This im 100% sure is about 95% correct. Please comment and 
and tell me anything i can make better if you find it :)

Intro (These two bars up until the verse are played in time):
E--------------------------|
B--------------------------|
G--------2-2---------2-2---|
D--0-0---2-2---3-3---2-2---|
A--0-0---0-0---3-3---0-0---|
D--0-0---------3-3---------|

E------------------------------|
B------3-----3-----3-----------|
G-------------------------3-2--|
D------------------------------|
A------------------------------|
D------------------------------|

Verse 1:
E---------------------------|
B---------------------------|
G--------2-2-2-------2-2-2--|
D--0-0-0-2-2-2-3-3-3-2-2-2--| x3
A--0-0-0-0-0-0-3-3-3-0-0-0--|
D--0-0-0-------3-3-3--------|
   . . . . . . . . . . . .

E---------------------------|
B---------------------------|
G--------2-2-2-------2------|
D--0-0-0-2-2-2-3-3-3-2-3-2--| x4
A--0-0-0-0-0-0-3-3-3-0------|
D--0-0-0-------3-3-3--------|
   . . . . . . . . . .

E---------------------------|
B---------------------------|
G--------2-2-2-------2-2-2--|
D--0-0-0-2-2-2-3-3-3-2-2-2--|
A--0-0-0-0-0-0-3-3-3-0-0-0--|
D--0-0-0-------3-3-3--------|
   . . . . . . . . . . . .

Prechorus:
E--------------------------|
B--------------------------|
G--3-3~-3-3-3---2~~~~------|
D--3-3~-3-3-3---2~~~~------|
A--1-1~-1-1-1---0~~~~------|
D--------------------------|

Chorus:
E-------------------------------------------------------|
B--6-----6-----6-----6-----6-----6-----6-----6----------|
G----5-----5-----5-----5-----7-----7-----7-----7--------|
D------7-----7-----7-----7-----5-----5-----5-----5------|
A-------------------------------------------------------|
D-------------------------------------------------------|

E-------------------------------------------|
B--6-----6-----6-----6-----5-----5-----5~~--|
G----7-----7-----7-----7-----5-----5--------|
D------5-----5-----5-----5-----5-----5------|
A-------------------------------------------|
D-------------------------------------------|

Intro

Repeat this throughout verse 2:
E------------|
B--6---------|
G----5-------|
D------7-----|
A------------|
D------------|

Start this after playing above bar 16 times:
E--------------------------|
B--------------------------|
G--3-3--2-2--0-0-----------|
D--3-3--2-2--0-0--0-0------| x3
A-----------------0-0------|
D--------------------------|

Little fill that leads into the next thing, considered pre chorus 2:
E--------------------------|
B--------------------------|
G--2-2-2-2-2-3-5~-3-2------|
D--------------------------|
A--------------------------|
D--------------------------|

Prechorus 2:
E--------------------------|
B--------------------------|
G--3-3-3-3-3-2-0-----------|
D--3-3-3-3-------3~-2~-----|
A--------------------------|
D--------------------------|

Afterchorus:
E---------------------------|
B--6-----6-----6-----6------|
G----5-----5-----5-----5----|
D------7-----7-----7-----7--|
A---------------------------|
D---------------------------|

Bridge:
E--3-3-3-3-3-5*----5-----0--------|
B--6-6-6-6-6---5*--8-----3--------|
G--5-5-5-5-5-------7x12--2x14-----|
D--3-3-3-3-3-------5-----0--------|
A--3-3-3-3-3-------5-----0--------|
D--3-3-3-3-3-------5-----0--------|

E--3-3-3-3-3-5*---5----0-0-0-0--------------------------------------|
B--3-3-3-3-3---5*-5----0-0-0-0-6-6-6-6-6-6-5-5-5-5-5-5-3-3-3-3-3-3--|
G--3-3-3-3-3------5x12-0-0-0-0--------------------------------------|
D--3-3-3-3-3------5----0-0-0-0--------------------------------------|
A--3-3-3-3-3------5----0-0-0-0--------------------------------------|
D--3-3-3-3-3------5----0-0-0-0--------------------------------------|

Chorus, but with no guitar until he says 'Do' in which play this muted and gradually release:
E---------------------------|
B---------------------------|
G---------------------------|
D--2-2-2-2-2-2-2-2-2-2-2-2--|
A--0-0-0-0-0-0-0-0-0-0-0-0--|
D---------------------------|
   . . . . . . . . .

Chorus 2 (Play when he says 'Your'):
E--------------------------------------------------------------------------|
B--------------------------------------------------------------------------|
G-7-7-7-7-7-7-7-7-7-7-7-7-3-3-3-3-3-3-3-3-3-3-3-3-5-5-5-5-5-5-5-5-5-5-5-5--|
D-7-7-7-7-7-7-7-7-7-7-7-7-3-3-3-3-3-3-3-3-3-3-3-3-5-5-5-5-5-5-5-5-5-5-5-5--|
A-5-5-5-5-5-5-5-5-5-5-5-5-1-1-1-1-1-1-1-1-1-1-1-1-3-3-3-3-3-3-3-3-3-3-3-3--|
D--------------------------------------------------------------------------|

Chorus 3:
E--9-----7-----5-----4----|--------------------------|
B--12----10----8-----7----|--2-2-2-2-2-3-5-3-2-------|
G--11x12-9x12--7x12--6x12-|--------------------------|
D--9-----7-----5-----4----|--------------------------|
A--9-----7-----5-----4----|--------------------------|
D--9-----7-----5-----4----|--------------------------|

Play the intro

That's all. Hope you liked, please comment and rate!

Legend:
~=sustain
.=palm mute
*=harmonic
Suggest correction
Give kudos to tab author, rate the tab!
1 2 3 4 5
comments
print report bad tab
1 comment total.
+1 reply
justjoshuaaa 155 Feb 01, 2015 09:56 PM

Close but i play the intro as

E--------------------------|
B------3-----3-----3---3-2-|
G--------2-2---------2-----|
D--0-0---2-2---3-3---2-----|
A--0-0---0-0---3-3---0-----|
D--0-0---------3-3---------|

guest
You may want to rate the tab now too:
select rating
Wanna post a correction for this tab? Suggest correction