Oops, an error
Loading. Please wait.

The Night tab

version 2
version 2

Whole song

Interactive

1,689 views 1 this week
1 commentread comment
1 2 3 4 5
x 3
add to favorites
×
Save as Personal and add changes to this tab that will be seen only by you. Learn more ›
×
You can save this tab as Personal to edit and correct it or add notes. All changes will be seen only by you. Learn more »
launch autoscroll
font size
0
reset
how to read this tab
guitar tuner
edit
Autoscroll
slow
fast
+/-
esc
set tempo
stop
-------------------------------------------------------------------------------
                             The Night – Goodnight Nurse
-------------------------------------------------------------------------------
Tabbed by: Destamoon
Email: ethans_apprentice@hotmail.com

Tuning: Drop D


Intro/Main Riff

Guitar 1

e|---------------------------------------------------------------------------|
B|---------------------------------------------------------------------------|
G|---12-12--13--12--8----------8-8-8--10-10-10-12----------------------------|
D|---x--x—--x-—-x---x---x2-----x-x-x--x--x--x--x----x2-----------------------|
A|---10-10--11--10--6----------6-6-6--8--8--8--10----------------------------|
D|---------------------------------------------------------------------------|

Guitar 2

e|---------------------------------------------------------------------------|
B|---------------------------------------------------------------------------|
G|---------------------------------------------------------------------------|
D|---6-6-6-6--------8-8-8-8---------10-10-10-10------------------------------|
A|---6-6-6-6---x4---8-8-8-8—--x2----10-10-10-10---x2-------------------------|
D|---6-6-6-6--------8-8-8-8---------10-10-10-10------------------------------|


Verse



e|---------------------------------------------------------------------------|
B|---1--1--1--1--1--1--1--1----3--3--3--3----4--4--4-------------------------|
G|--1--1--1--1--1--1--1--1----3--3--3--3----5--5--5-----------x2-------------|
D|---------------------------------------------------------------------------|
A|---------------------------------------------------------------------------|
D|---------------------------------------------------------------------------|
    
      Pm.........................................   
e|---------------------------------------------------------------------------|
B|---------------------------------------------------------------------------|
G|---------------------------------------------------------------------------|
D|----6-6-6-6---------8-8-8-8---------10-10-10-10----------------------------|
A|----6-6-6-6-----x4--8-8-8-8-----x2--10-10-10-10-----x2---------------------|
D|----6-6-6-6---------8-8-8-8---------10-10-10-10----------------------------|

      Pm.....................   
e|---------------------------------------------------------------------------|
B|---------------------------------------------------------------------------|
G|---------------------------------------------------------------------------|
D|----6-6-6-6---------8-8-8-8------------------------------------------------|
A|----6-6-6-6-----x4--8-8-8-8-----x4-----------------------------------------|
D|----6-6-6-6---------8-8-8-8------------------------------------------------|


Chorus


Guitar 1

e|---------------------------------------------------------------------------|
B|---------------------------------------------------------------------------|
G|----10—-8-8-8-8-8----10--12-12-12-12-12-----10-10-10-10---13-13-13-13------|
D|----x---x-x-x-x-x----x---x--x--x--x--x------x--x--x--x----x--x--x--x-------|
A|----8---6-6-6-6-6----8---10-10-10-10-10-----8--8--8--8----11-11-11-11------|
D|---------------------------------------------------------------------------|

e|---------------------------------------------------------------------------|
B|---------------------------------------------------------------------------|
G|----10—-8-8-8-8-8----10--12-12-12-12-12------------------------------------|
D|----x---x-x-x-x-x----x---x--x--x--x--x-------------------------------------|
A|----8---6-6-6-6-6----8---10-10-10-10-10------------------------------------|
D|---------------------------------------------------------------------------|

e|---------------------------------------------------------------------------|
B|---------------------------------------------------------------------------|
G|----10-10-10-10---8-8-8-8-----13-13-13-13-13-13-13-13----------------------|
D|----x—-x--x--x----x-x-x-x-----x--x--x—-x--x--x--x--x ----------------------|
A|----8—-8—-8--8----6-6-6-6-----11-11-11-11-11-11-11-11----------------------|
D|---------------------------------------------------------------------------|

Guitar 2

e|---------------------------------------------------------------------------|
B|---------------------------------------------------------------------------|
G|---8-8---------------------------------------------------------------------|
D|---8-8--6-6-6-6-6-6-6-6------8-8--10-10-10-10-10-10-10-10------------------|
A|---6-6--6-6-6-6-6-6-6-6------8-8--10-10-10-10-10-10-10-10------------------|
D|--------6-6-6-6-6-6-6-6------8-8--10-10-10-10-10-10-10-10------------------|

e|---------------------------------------------------------------------------|
B|---------------------------------------------------------------------------|
G|---------------------------------------------------------------------------|
D|---8-8-8-8-8-8-8-8-----6-6-6-6-6-6-6-6-------------------------------------|
A|---8-8-8-8-8-8-8-8-----6-6-6-6-6-6-6-6-------------------------------------|
D|---8-8-8-8-8-8-8-8-----6-6-6-6-6-6-6-6-------------------------------------|

e|---------------------------------------------------------------------------|
B|---------------------------------------------------------------------------|
G|---8-8---------------------------------------------------------------------|
D|---8-8--6-6-6-6-6-6-6-6------8-8--10-10-10-10-10-10-10-10------------------|
A|---6-6--6-6-6-6-6-6-6-6------8-8--10-10-10-10-10-10-10-10------------------|
D|--------6-6-6-6-6-6-6-6------8-8--10-10-10-10-10-10-10-10------------------|

e|---------------------------------------------------------------------------|
B|---------------------------------------------------------------------------|
G|---------------------------------------------------------------------------|
D|---8-8-8-8-8-8-8-8-----6-6-6-6-6-6-6-6-----3-3-3-3-3-3-3-3-----------------|
A|---8-8-8-8-8-8-8-8-----6-6-6-6-6-6-6-6-----3-3-3-3-3-3-3-3-----------------|
D|---8-8-8-8-8-8-8-8-----6-6-6-6-6-6-6-6-----3-3-3-3-3-3-3-3-----------------|


Main Riff

Guitar 1

e|---------------------------------------------------------------------------|
B|---------------------------------------------------------------------------|
G|---12-12--13--12--8----------8-8-8--10-10-10-12----------------------------|
D|---x--x—--x-—-x---x---x2-----x-x-x--x--x--x--x----x2-----------------------|
A|---10-10--11--10--6----------6-6-6--8--8--8--10----------------------------|
D|---------------------------------------------------------------------------|

Guitar 2

e|---------------------------------------------------------------------------|
B|---------------------------------------------------------------------------|
G|---------------------------------------------------------------------------|
D|---6-6-6-6--------8-8-8-8---------10-10-10-10------------------------------|
A|---6-6-6-6---x4---8-8-8-8—--x2----10-10-10-10---x2-------------------------|
D|---6-6-6-6--------8-8-8-8---------10-10-10-10------------------------------|


Verse 2



Guitar 1

e|---------------------------------------------------------------------------|
B|---1--1--1--1--1--1--1--1----3--3--3--3----4--4--4-------------------------|
G|--1--1--1--1--1--1--1--1----3--3--3--3----5--5--5-----------x2-------------|
D|---------------------------------------------------------------------------|
A|---------------------------------------------------------------------------|
D|---------------------------------------------------------------------------|
 
e|-----------3-3--------3-3-6-6-3-3-------------------------------------------------|
B|-------4-4--------4-4----------------------------------------------------------|
G|---5-5---------5-5---------------------x4---------------------------------------|
D|---------------------------------------------------------------------------|
A|---------------------------------------------------------------------------|
D|---------------------------------------------------------------------------|


Guitar 2
   
      Pm.........................................   
e|---------------------------------------------------------------------------|
B|---------------------------------------------------------------------------|
G|---------------------------------------------------------------------------|
D|----6-6-6-6---------8-8-8-8---------10-10-10-10----------------------------|
A|----6-6-6-6-----x4--8-8-8-8-----x2--10-10-10-10-----x2---------------------|
D|----6-6-6-6---------8-8-8-8---------10-10-10-10----------------------------|

      Pm.....................   
e|---------------------------------------------------------------------------|
B|---------------------------------------------------------------------------|
G|---------------------------------------------------------------------------|
D|----6-6-6-6---------8-8-8-8------------------------------------------------|
A|----6-6-6-6-----x4--8-8-8-8-----x4-----------------------------------------|
D|----6-6-6-6---------8-8-8-8------------------------------------------------|

      Hard Single Stokes
e|---------------------------------------------------------------------------|
B|---------------------------------------------------------------------------|
G|---------------------------------------------------------------------------|
D|----6-6-6-6---------8-8-8-8---------10-10-10-10----------------------------|
A|----6-6-6-6-----x4--8-8-8-8-----x2--10-10-10-10-----x2---------------------|
D|----6-6-6-6---------8-8-8-8---------10-10-10-10----------------------------|

        
e|---------------------------------------------------------------------------|
B|---------------------------------------------------------------------------|
G|---------------------------------------------------------------------------|
D|----6-6-6-6---------8-8-8-8------------------------------------------------|
A|----6-6-6-6-----x4--8-8-8-8-----x4-----------------------------------------|
D|----6-6-6-6---------8-8-8-8------------------------------------------------|







There you go, have a blast
Any comments or corrections, Email me at ethans_apprentice@hotmail.com


Enjoy!



~Jak












===============================================================================


            
            
Suggest correction
Creating personal tab
Creating personal tab
You can edit any tab online and save it as your Personal.

You can edit, replace or remove any tab part or add personal notes – all changes will be seen only by you.

Personal tabs can be accessed anytime from any device, even offline.
Learn more »
Give kudos to tab author, rate the tab!
1 2 3 4 5
comments
print report bad tab
1 comment total.
0 reply
Destamoon 92 May 03, 2008 06:52 PM

ahhh dammnit, instead of the octave on the 11th fret on the A string, it should be on the 13th fret sorry!

e|---------------------|
B|---------------------|
G|----15-15-15-15------|
D|----x--x--x--x-------|
A|----13-13-13-13------|
D|---------------------|

guest
You may want to rate the tab now too:
select rating
Wanna post a correction for this tab? Suggest correction