Oops, an error
Loading. Please wait.

Sophie chords

version 1
version 1

Whole song

Interactive

30,054 views 84 this week
7 commentsread comments
1 2 3 4 5
x 36
add to favorites
×
Save as Personal and add changes to this tab that will be seen only by you. Learn more ›
×
You can save this tab as Personal to edit and correct it or add notes. All changes will be seen only by you. Learn more »
launch autoscroll
font size
0
reset
transpose
0
reset
display chords
guitar tuner
edit
Autoscroll
slow
fast
+/-
esc
set tempo
stop
Author
Strumming
There is no strumming pattern for this song yet. and get +5 IQ
1.
D            F#                 G
Just cos I know where she lives
I wont stick around like adhesive       E
Instead ill skin my knees and wait in between

2.
Shell tug on my imagination
Ill wait for an indication
Systematic smiles wear thin

Chorus
        D            F#         G      D
Shes just so sweet so fine, so polite too
F#            G        E
Sophie id like to be for you
          D     F#    G      D
But the only only way I know
    E           G
Takes so long, so long

3.
Aglow from her aura
From far ill adore her
I think ill leave this coin in my pocket.

V2
Chorus


PRE CHORUS
-------------------------------------------------
-----------3-----------------3-------------------
--------4-----------------4--------------2-------
-------------------------------------------------
-------------------------------------------------
----3-----------------2------------0-------------

            
            
Suggest correction
Creating personal tab
Creating personal tab
You can edit any tab online and save it as your Personal.

You can edit, replace or remove any tab part or add personal notes – all changes will be seen only by you.

Personal tabs can be accessed anytime from any device, even offline.
Learn more »
comments
print report bad tab
7 comments total. Showing first comments.
0 reply
dreamlespaul 10 Mar 06, 2003 07:00 PM

For the bit b4 the chorus it goes more like this:

------------------------------------------
---0----0----0-----------------------
---0----0----------------------------
---------------------------------------
-------------------------------------------
3----2----0----------------------------

0 reply
dreamlespaul 10 Mar 06, 2003 07:00 PM

Sorry about the correction b4 it goes like this:
----------------------------
----0-------0---------0---------
------ 0--------0----------
----------------------------
----------------------------
3------- 2----------0-----------

0 reply
p_g_chris 40 Dec 11, 2003 07:00 PM

Nice work, someone actually can do chords... just one thing that took me ages to realise too, the d chord is weird and is played like this

-----5--------------------------
-----5--------------------------
-----5--------------------------
--------------------------------
--5-----------------------------
--------------------------------

the 555 bit played on the upstrum.. it is d, just some kind of variation.. i'm too tired to figure it out but i know its right. oh, and remember to play a barred G, not open- sounds better.

guest
You may want to rate the tab now too:
select rating
Wanna post a correction for this tab? Suggest correction