Oops, an error
Loading. Please wait.

Hikaru Nara Bass Tab

version 1
version 1

Whole song

Interactive

10 views 1 this week
no commentswrite comment
1 2 3 4 5
3 more votes to show rating
add to favorites
launch autoscroll
font size
0
reset
guitar tuner
Autoscroll
slow
fast
+/-
esc
set tempo
stop
Help us to improve Ultimate-Guitar.com Take our survey!
×
Author
Difficulty
[Intro]

G|---------------------------------------------------------------------------|
D|---------------------------------------------------------------------------|
A|--5-5-5-5-x2----7-7-7-7-x2----9-9-9-9-x2----4-4-4-4-x2---------------------|
E|---------------------------------------------------------------------------|

G|---------------------------------------------------------------------------|
D|---------------------------------------------------------------------------|
A|--2-2-2-2-x2----7-7-7-7-x2----5-5--5-5--5-12-------------------------------|
E|---------------------------------------------------------------------------|


[Verse]

G|---------------------------------------------------------------------------|
D|---------------------------------------------------------------------------|
A|----------------7-7-7-7-x4----9-9-9-9-x2----4-4-4-4-x2----5-5-5-5-x4-------|
E|--5-5-5-5-x4---------------------------------------------------------------|

G|---------------------------------------------------------------------------|
D|---------------------------------------------------------------------------|
A|--2-2-2-2-x2----4-4-4-4-x2-----------------2-2-2-2-x6----4-4-4-4-x2--------|
E|------------------------------2-2-2-2-x2-----------------------------------|


[Pre-Chorus]

G|-----------------------------------------------------------------------|
D|-----------------------------------------------------------------------|
A|--5-5-4-5----4-4-2-4----2-2-0-2----------------------------------------|
E|-----------------------------------5-5-4-5--5-5------------------------|

G|-----------------------------------------------------------------------|
D|-----------------------------------------------------------------------|
A|--2-2----2--2----4-4----4-4------5-5-5-5-x4--4-4--4-4--4-4-------------|
E|------2-------2------4------4------------------------------------------|


[Chorus]

G|-------------------------------------------------|
D|-------------------------------------------------|
A|--5-5-5-5----7-7-7-7----9-9-9-9-x2---------------|
E|-------------------------------------------------|



************************************

| x  Dead note

************************************
Suggest correction
Give kudos to tab author, rate the tab!
1 2 3 4 5
comments
print report bad tab
guest
You may want to rate the tab now too:
select rating
Wanna post a correction for this tab? Suggest correction