Oops, an error
Loading. Please wait.

Put Ka Sreci Chords

752 views 1 this week
no commentswrite comment
1 2 3 4 5
please rate
add to favorites
launch autoscroll
font size
0
reset
transpose
0
reset
display chords
guitar tuner
Autoscroll
slow
fast
+/-
esc
set tempo
stop
Help us to improve Ultimate-Guitar.com Take our survey!
×
Author
Goran Bare
PUT KA SRECI

                               G
E||----7--7--7--7--5--3-----|--3----------------|----7--7--7--7--5--3-----|
B||----------------------5--|-------------------|----------------------5--|
G||-------------------------|-------------------|-------------------------|
D||-------------------------|-------------------|-------------------------|
A||-------------------------|-------------------|-------------------------|
E||-------------------------|-------------------|-------------------------|

  C                                              D               C    
--5--------3--------|----7--7--7--7--5--3-----|--5----5----5--2-------|
--------------------|----------------------5--|------------------5----|
--------------------|-------------------------|-----------------------|
--------------------|-------------------------|-----------------------|
--------------------|-------------------------|-----------------------|
--------------------|-------------------------|-----------------------|

                             G         
-----7--7--7--7--5--3-----|--3--------5----3----|
--3--------------------5--|---------------------|
--------------------------|---------------------|
--------------------------|---------------------|
--------------------------|---------------------|
--------------------------|---------------------|

GITARA 2
UVOD : G C A D G C G

               G                      C
Gdje je nestao covjek, gdje se skriva on
          G                      C
Iz vagona godina na tracnice ispao
              G                    C
Gleda gdje su znakovi, kojim putem krenuti
            G                   C
Moze li tko reci gdje je put ka sreci

     A                   C
Samo zivi samo budi, svi odgovori doci ce sami
     A                 C            D
Samo stoj na svjetlu i doci ce kraj tami

UVOD
            G                            C
Kakva je to istina kad s druge strane je laz
         G                      C
Izvrnute vrijednosti strah samo strah
             G                   C
Neostvareni snovi, radis ono sto ne volis
            G                   C
Ali mogu ti reci gdje je put ka sreci

     A                   C
Samo zivi samo budi, svi odgovori doci ce sami
     A                 C            D
Samo stoj na svjetlu i doci ce kraj tami

Suggest correction
Give kudos to tab author, rate the tab!
1 2 3 4 5
comments
print report bad tab
guest
You may want to rate the tab now too:
select rating
Please do not post tabs as comments. Select "correction" instead!