Oops, an error
Loading. Please wait.

Code Anticode Bass Tab

1,481 views 1 this week
1 commentread comment
1 2 3 4 5
please rate
add to favorites
launch autoscroll
font size
0
reset
guitar tuner
Tab Pro tools
  • play this tab
  • loop segment
  • change instrument
  • show fretboard
  • metronome
×
Best way to learn
"Code Anticode"
Autoscroll
slow
fast
+/-
esc
set tempo
stop
Contributor
Tuning: Standard 5-String (BEADG) or drop d tuning for 4-string

SECTION 1
G------------------------------------------------------------|
D------------------------------------------------------------|
A--------------------------5-7h5h7--2-0----------------------|
E-0-0--0--0-2-3-5h7--0-0--7------------3-2-0-0--0--0-2-3-5h7-|
B-----3--3-------------------------------------3--3----------|

G-------------------------------------------------------------------|
D-------------------------------------------------------------------|
A-------5-7h5h7--5-2-0-----------------------------5-7h5h7-10-9-7-5-|
E-0-0--7---------------3--0-0--0--0-2-3-5h7--0-0--7-----------------|
B-----------------------------3--3----------------------------------|
SECTION 2
G------------------------------------------|
D------------------------------------------|
A-2----2---2----2----2----2-----2----2-----|
E------------------------------------------|
B--3-5--3-5--3-5--3-5--3-5--3-5---3-5--3-5-|

G------------------------------------------------------------|
D------------------------------------------------------------|
A--------------------------5-7h5h7--2-0----------------------|
E-0-0--0--0-2-3-5h7--0-0--7------------3-2-0-0--0--0-2-3-5h7-|
B-----3--3-------------------------------------3--3----------|

G--------------------------------------------------------------------|
D--------------------------------------------------------------------|
A-------5-7h5h7--5-2-0-----------------------------5-7h5h7-2-0-------|
E-0-0--7---------------3--0-0--0--0-2-3-5h7--0-0--7------------3-2-0-|
B-----------------------------3--3-----------------------------------|

G--------------------------------------------|
D--------------------------------------------|
A---------------------------5-7h5h7-10-9-7-5-|
E-0-0--0--0-2-3-5h7--0-0--7------------------|
B-----3--3-----------------------------------|

G-------------------------------------------------------|
D-------------------------------------------------------|
A-2----2---2----2----2----2-----2----2------3(let ring)-|
E-------------------------------------------------------|
B--3-5--3-5--3-5--3-5--3-5--3-5---3-5--3-5--------------|
SECTION 3
G----------11--------------|
D----12--9------9----------|
A-10----------7-----10-----| (play 4x)
E-----------------8--------|
B--------------------------|
SECTION 4
G------------------------------|
D------------------------------|
A----------3----------3-2-3-5--| (play 2x)
E-3--2--0----3--2--0-----------|
B------------------------------|
SECTION 5
G---------------------------------------------------------|
D---------------------------------------------------------|
A----------------2-0-------0--7-5b------------------0-2-5-|
E--0----0-0----------0-0-----------0-0----3-2--0-0--------|
B-----------3-------------3------------3-----------3------|

G----------------------------------------|
D----------------------------------------|
A---------2-0--------0-7-5b---------7-5b-|
E-0-0----------0-0----------0-0----------|
B-----3------------3------------3--------|

G---------------------------------2h4--2h4--2h4--2h4--2h4--2h4-|
D--------------------------------------------------------------|
A-2----2---2----2----2----2-----2----2-----2----2----2----2----|
E--------------------------------------------------------------|
B--3-5--3-5--3-5--3-5--3-5--3-5--------------------------------|

G--5-5-5-5--5-5-5-5--5-5-5-5--5-5-5-5-|
D-------------------------------------|
A-3--------3-------3------------------|(listen to song for exact rythem and # of times played)
E-------------------------------------|
B-------------------------------------|

G--2-2-2-2-|
D----------|
A-0--------|(Again, listen to song for rythem and # of times played)
E----------|
B----------|

G--------                          |G-------|
D--------                          |D--5----|
A--5h7---(play this numerous times)|A---5h7-|(play this numerous times) *listen to these parts
E-0------                          |E-0-----|                             for timing*
B--------                          |B-------|

Play SECTION 2

G---2h4--2h4--2h4--2h4--2h4--2h4--|
D---------------------------------|
A--2----2-----2----2----2----2----|
E---------------------------------|
B---------------------------------|

G-------------|
D-------------|
A-3(let ring)-| Play SECTION 3
E-------------|
B-------------|

Play SECTION 4

G----------0h2-4-|
D-0h20h20h2------|
A----------------|
E----------------|
B----------------|

END
A-2-2-2-
comments
We did not receive enough feedback on this tab! Please rate:
print report bad tab
1 2 3 4 5
1 comment total.
0 reply
Bauti777 wrote on June 4 2014, 03:23 pm

It's really accurate, but i'm sure the 2nd section is like this

G--------------------------------------|
D--------------------------------------|
A--------------------------------------|
E-7--------7--------7--------7---------|
B--3--5--7---3--5--7-3--5--7---3--5--7-|

Thanks for the tab!

I want to post or [tab]
guest
You may want to rate the tab now too:
select rating
Please do not post tabs as comments. Select "correction" instead!