Oops, an error
Loading. Please wait.

Secret Path Chords

version 1
version 1

Whole song

187 views 6 this week
no commentswrite comment
1 2 3 4 5
3 more votes to show rating
add to favorites
launch autoscroll
font size
0
reset
transpose
0
reset
display chords
guitar tuner
Autoscroll
slow
fast
+/-
esc
set tempo
stop
Help us to improve Ultimate-Guitar.com Take our survey!
×
Author
Difficulty
Capo
novice
1st fret
Chorus and Bridge
-----------------
F#  244xxx     
B   x244xx     
E   0221xx


Capo 1st fret


[Intro]

e|-----------------------|
B|-----------------------|
G|-----------------------|
D|-----------------------| x4
A|-----------------------|
E|--0---0---0---0---0-0--|


[Verse 1]

e|-------4---------------|-------2---------------|
B|---2-4-----------------|---2-4-----------------|
G|-----------------------|-----------3---1-------|
D|-----------------------|-----------------------| x4
A|-----------------------|-----------------------|
E|---0-0-0---0---0---0---|---0-0-0---0---0---0---|

     Freezing rain,          and ice pellets
     Walking home,           I’m covered in it
     Walking home,           all along the tracks
     Secret path,            did you say secret pa...         


[Chorus 1]

F# B   E 
a--th?
B    E     B       E
Pale blue, doesn’t do what they
 B        E                   B  E
Said it’d do, it’s just a jacket
         B E                     B  E
It’s a windbreaker, it’s not a jean jacket, it’s
               B   E
They call it a windbreaker


[Verse 2]

e|-------4---------------|-------2---------------|
B|---2-4-----------------|---2-4-----------------|
G|-----------------------|-----------3---1-------|
D|-----------------------|-----------------------| x4
A|-----------------------|-----------------------|
E|---0-0-0---0---0---0---|---0-0-0---0---0---0---|

     Walking home,           all along the tracks
     Secret path,            he said secret path
     I am soaked,            --- to the skin
     There’s never been,     a colder rain that this one 


[Chorus 2]

F#  B   E
I’m in
B    E     B       E
Pale blue, doesn’t do what they
 B        E               B      E
Said it’d do, it’s not my jacket
         B E                      B  E
It’s a windbreaker, it’s not my jean jacket, it’s
       B   E
Just a windbreaker


[Bridge]

        F#       E       F#       E
And the fuck-off rocks, along the tracks
F#     E                F#     E     B
Secret path, there’s no secret path


[Verse 3]

e|----------4---------------|-------2---------------|
B|------2-4-----------------|---2-4-----------------|
G|--------------------------|-----------3---1-------|
D|--------------------------|-----------------------| x2
A|--------------------------|-----------------------|
E|------0-0-0---0---0---0---|---0-0-0---0---0---0---|

And the freezing rain,          and the ice pellets
        Coat the rail,          so I can’t even tightrope it
   
End with B-chord

Suggest correction
Give kudos to tab author, rate the tab!
1 2 3 4 5
comments
print report bad tab
guest
You may want to rate the tab now too:
select rating
Wanna post a correction for this tab? Suggest correction