Oops, an error
Loading. Please wait.

Son Tab

52 views 1 this week
no commentswrite comment
1 2 3 4 5
3 more votes to show rating
add to favorites
launch autoscroll
font size
0
reset
how to read this tab
guitar tuner
Autoscroll
slow
fast
+/-
esc
set tempo
stop
Help us to improve Ultimate-Guitar.com Take our survey!
×
Author
Difficulty
Tuning
intermediate
C G C G C E
Tuning to Open-C: https://www.youtube.com/watch?v=YReQQ5_akME


[Verse 1]
  
e|-------------------------------------------------------|
C|------------------------------------------------0------|
G|----------------------------------------5-------0------|
C|----------------------------------------5-------0------| x4
G|----7-----5-----7-----5-----7-----5-----5-------0------|
C|----------------------------------------5--------------|

      You  know   that  they  just  can’t re------sist
      No   man    could make  them  feel  ner-----vous
      And  they   put   ze----ro    in----to      it
      And  their  coun--try   does--n’t   ex------ist


[Chorus 1]

e|----------------------------------|--------------------------------|
C|----------------------------------|--------------------------------|
G|------5-----5-----5-----5-----5---|---4-----4-----4-----4-----4----|
C|--------4-----4-----4-----4-----4-|-----4-----4-----4-----4-----4--|
G|----5-----5-----5-----5-----5-----|-5-----5-----5-----5-----5------|
C|----------------------------------|--------------------------------|

      Son,                   when you dance          I’ll be on your

e|----------------------------------|--------------------------------|
C|----------------------------------|--------------------------------|
G|------2-----2-----2-----2-----2---|---0-----0-----0-----0-----0----|
C|--------0-----0-----0-----0-----0-|-----0-----0-----0-----0-----0--|
G|----0-----0-----0-----0-----0-----|--------------------------------|
C|----------------------------------|-0-----0------0----0-----0------|

      Shoulder,            and you’ll feel it


e|--------------------------0-------------------|
C|-------/5--5--5--5--5--5--0-------------------|
G|-------/5--5--5--5--5--5--0-------------------|
C|-------/5--5--5--5--5--5--0-------------------| x4
G|----0---------------------0-------------------|
C|----0---------------------0------0-----0-0----|


e|----------------------------------|--------------------------------|
C|----------------------------------|--------------------------------|
G|------5-----5-----5-----5-----5---|---4-----4-----4-----4-----4----|
C|--------4-----4-----4-----4-----4-|-----4-----4-----4-----4-----4--|
G|----5-----5-----5-----5-----5-----|-5-----5-----5-----5-----5------|
C|----------------------------------|--------------------------------|

      Son,                   when you dance          I’ll be on your

e|----------------------------------|--------------------------------|
C|----------------------------------|--------------------------------|
G|------2-----2-----2-----2-----2---|---0-----0-----0-----0-----0----|
C|--------0-----0-----0-----0-----0-|-----0-----0-----0-----0-----0--|
G|----0-----0-----0-----0-----0-----|--------------------------------|
C|----------------------------------|-0-----0------0----0-----0------|

      Shoulder,            and you’ll feel it


[Post-Chorus 1]

e|-------------------------------------------------------|
C|-------------------------------------------------0-----|
G|-------------------------------------------------0-----|
C|-----------------0------------------0------------0-----| 
G|----------10-----------------10-----------10-----------|
C|----0------------------0-------------------------------|

      And   when   some--thing stirs  in    your   heart 

e|-------------------------------------------------------|
C|-------------------------------------------------------|
G|-------------------------------------------------------|
C|-----------------0------------------0------------------| 
G|----------10-----------------10-----------10-----0-----|
C|----0------------------0-------------------------0-----|

      A     feel---ing   so    strong and   in-----tense 

e|-------------------------------------------------------|
C|-------------------------------------------------0-----|
G|-------------------------------------------------0-----|
C|-----------------0------------------0------------0-----| 
G|----------10-----------------10-----------10-----------|
C|----0------------------0-------------------------------|

      When   some—thing  oc----curs   in    your   heart 

e|-------------------------------------------------------|
C|-------------------------------------------------------|
G|-------------------------------------------------------|
C|-----------------0------------------0------------------| 
G|----------10-----------------10-----------10-----0-----|
C|----0------------------0-------------------------0-----|

      And   there  is----n't   a      next  sen----tence


[Chorus 2]

e|----------------------------------|--------------------------------|
C|----------------------------------|--------------------------------|
G|------5-----5-----5-----5-----5---|---4-----4-----4-----4-----4----|
C|--------4-----4-----4-----4-----4-|-----4-----4-----4-----4-----4--|
G|----5-----5-----5-----5-----5-----|-5-----5-----5-----5-----5------|
C|----------------------------------|--------------------------------|

e|----------------------------------|--------------------------------|
C|----------------------------------|--------------------------------|
G|------2-----2-----2-----2-----2---|---0-----0-----0-----0-----0----|
C|--------0-----0-----0-----0-----0-|-----0-----0-----0-----0-----0--|
G|----0-----0-----0-----0-----0-----|--------------------------------|
C|----------------------------------|-0-----0------0----0-----0------|


e|----------------------------------|--------------------------------|
C|----------------------------------|--------------------------------|
G|------5-----5-----5-----5-----5---|---4-----4-----4-----4-----4----|
C|--------4-----4-----4-----4-----4-|-----4-----4-----4-----4-----4--|
G|----5-----5-----5-----5-----5-----|-5-----5-----5-----5-----5------|
C|----------------------------------|--------------------------------|

      Son,                   when you dance          I’ll be on your

e|----------------------------------|--------------------------------|
C|----------------------------------|--------------------------------|
G|------2-----2-----2-----2-----2---|---0-----0-----0-----0-----0----|
C|--------0-----0-----0-----0-----0-|-----0-----0-----0-----0-----0--|
G|----0-----0-----0-----0-----0-----|--------------------------------|
C|----------------------------------|-0-----0------0----0-----0------|

      Shoulder,            and you’ll feel it

e|-------------------------------------------------------|
C|------------------------------------------------0------|
G|----------------------------------------5-------0------|
C|----------------------------------------5-------0------| x2
G|----7-----5-----7-----5-----7-----5-----5-------0------|
C|----------------------------------------5--------------|

[Verse 2]

e|-------------------------------------------------------|
C|------------------------------------------------0------|
G|----------------------------------------5-------0------|
C|----------------------------------------5-------0------| x6
G|----7-----5-----7-----5-----7-----5-----5-------0------|
C|----------------------------------------5--------------|

      E-----ven   as    the   world con---vul-----ses 
      Don't stop  wish--ing   what        you     wish 
      E-----ven   as    the   world con---vul-----ses 
      E-----ven   as    the   world con---vul-----ses 
      Don't stop  wish--ing   the  things you     wish 
      Don't stop  wish--ing   what        you     wish 


[Post-Chorus 2]

e|-------------------------------------------------------|
C|-------------------------------------------------0-----|
G|-------------------------------------------------0-----|
C|-----------------0------------------0------------0-----| 
G|----------10-----------------10-----------10-----------|
C|----0------------------0-------------------------------|

      And   when   some--thing stirs  in    your   heart 

e|-------------------------------------------------------|
C|-------------------------------------------------------|
G|-------------------------------------------------------|
C|-----------------0------------------0------------------| 
G|----------10-----------------10-----------10-----0-----|
C|----0------------------0-------------------------0-----|

      A     feel---ing   so    strong and   in-----tense 

e|-------------------------------------------------------|
C|-------------------------------------------------0-----|
G|-------------------------------------------------0-----|
C|-----------------0------------------0------------0-----| 
G|----------10-----------------10-----------10-----------|
C|----0------------------0-------------------------------|

      When   some—thing  oc----curs   in    your   heart 

e|-------------------------------------------------------|
C|-------------------------------------------------------|
G|-------------------------------------------------------|
C|-----------------0------------------0------------------| 
G|----------10-----------------10-----------10-----0-----|
C|----0------------------0-------------------------0-----|

      And   there  is----n't   a      next  sen----tence

Suggest correction
Give kudos to tab author, rate the tab!
1 2 3 4 5
comments
print report bad tab
guest
You may want to rate the tab now too:
select rating
Wanna post a correction for this tab? Suggest correction