Oops, an error
Loading. Please wait.

Coming From Somewhere Else Tab

136 views 1 this week
no commentswrite comment
1 2 3 4 5
3 more votes to show rating
add to favorites
launch autoscroll
font size
0
reset
how to read this tab
guitar tuner
Autoscroll
slow
fast
+/-
esc
set tempo
stop
Help us to improve Ultimate-Guitar.com Take our survey!
×
Author
Difficulty
Tuning
intermediate
D A D G B E
Coming from Somewhere Else
Album: Coming from Somewhere Else
  at www.Amazon.com
Gordon Kennedy, Wayne Kirkpatrick,
Phil Madeira, & Billy Sprague

(C) 2000 Warner Tamberane Publishing Corp/Sell the
Cow Music (BMI) Universal Music

Tabbed by Giles Bailey Jr.

Drop D tuning

INTRO:
e:---0-0-0-2-|-0-0-0-0-0-0-----|---0-0-0-2-|-0-------|
B:---3-3-3-3-|-1-0-1-0-1-0-----|---3-3-3-3-|-1-3-5-1-|
G:---2-2-2-2-|-0-0-0-0-0-0-----|---2-2-2-2-|-0-0-0-0-|
D:---0-0-0-0-|-2-0-2-0-2-0-----|---0-0-0-0-|-2-4-5-2-|
A:-----------|-0-0-0-0-0-0-----|-----------|-0-------|
D:-0---------|-------------3-0-|-----------|---------|


Verse 1:
F    F    Am7                            (Repeat Intro)
Left to myself, it's not a pretty picture.
F   F     Am7                            (Repeat Intro)
Me and my will, it's such a deadly mixture.
Bb
I am first and you're the least,
Bb
That's the nature of the beast.


Chorus:
D          Am7  G
If there's any love, any evidence of,
D          Am7  Bb
If there's any, any good inside myself,
      E      G              (Repeat Intro)
It's coming from somewhere else.


Verse 2:
   F    F       Am7                       (Repeat Intro)
I draw from the well, I drink the living water.
   F    F          Am7                    (Repeat Intro)
I look through the veil; See the mercy of the Father.
Bb
Leave it to the prince of peace,
Bb
To change the nature of the beast.


Repeat Chorus


(I could not hear what the rhythm guitars were doing on this
so I just used this to get me into position for the following
bridge... it is close.)

e:-0-------|---------|
B:-1-3-5-3-|-5-7-8-7-|
G:-0-0-0-0-|-0-0-0-0-|
D:-2-4-5-4-|-5-7-9-7-|
A:-0-------|---------|
D:---------|---------|




Bridge: (switch to 6/8) Gently
   Bb    F       Eb    Bb
e:-6-----1-----|-------------|
B:-6-----1-----|-8-----3-----|
G:-7-----2-----|-8-----3-----|
D:-8-----3-----|-8-----3-----|
A:-8-----3-----|-6-----1-----|
D:-------------|-------------|
  Cm7    Bb      Cm7   Bb
e:-3-----------|-3-----------|
B:-4-----6-----|-4-----3-----|
G:-3-----7-----|-3-----3-----|
D:-5-----8-----|-5-----3-----|
A:-3-----8-----|-3-----1-----|
E:-------------|-------------|

Bb            F           Eb       Bb
Coming from, coming from somewhere else
 Cm7       Bb            Cm7     Bb
Somewhere where there's perfect love
           Bb             F               Eb        Bb
Won't you take me there, take me there - somewhere else?
 Cm7                      F            (Repeat Intro)
Take me there, Won't you take me there...


Ending:
Bb
I am first and you're the least,
Bb
Leave it to the prince of peace,
Bb
To change the nature of the beast.


Repeat Chorus
Then:


e:-0-------|------12-10-|- 0-|
B:-1-3-5-7-|-8-10-12-10-|-13-|
G:-0-0-0-0-|-0- 0- 0- 0-|-14-|
D:-2-4-5-7-|-9-10-12-10-|-15-|
A:-0-------|------------|----|
D:---------|------------|- 0-|
Suggest correction
Give kudos to tab author, rate the tab!
1 2 3 4 5
comments
print report bad tab
guest
You may want to rate the tab now too:
select rating
Wanna post a correction for this tab? Suggest correction